Song name
# A B C D E F G H I J K L M N O P Q R S T U V W X Y Z

Bowling For Soup - Circle tab

-----------------------------------------------------------------------------
                          Circle - Bowling For Soup
-----------------------------------------------------------------------------
Tabbed by: Fabio-BlenderBR
 - Please rate and send me your feedback - 

This intro has 2 guitars. First guitar do the fingering chords,
and the second guitar do that little riff(is at 0:07 on the song).

Intro : 

e|----3----3-----3-----3-----3---|-------3-----3---3-----------------|
B|----3----3-----3-----3-----3---|-------3-----3---3-----------------|
G|------0----0-----0-----0-----0-|---------0-----0-0-----------------|
D|---0----0-----0-----0-----0----|------0-----0----------------------|
A|--3----------0-----------------|-----------------------------------|
E|-------3-----------3-----1-----|----1-----3------------------------|


                                 e|--3-2-2-2-2--3-------------------|
                                 B|--3-3-2-0-3--3-------------------|
                                 G|---------------------------------|
                                 D|---------------------------------|
                                 A|---------------------------------|
                                 E|---------------------------------|
                                                ^^
                              This is the little riff that second guitar does
                                        (At 0:07 on the song) 
                                    
 - Verse 
(Me, Im a part of your circle of friends...)

e|----3----3----3----3---| 
B|----3----3----3----3---| 
G|-----0----0----0----0--| 
D|---0----0----0----0----|
A|--3---------0----------|   4x
E|-------3---------3-----| 

C       G 
I quit, I give up
           A          G            F
Nothing's good enough for anybody else
    G
It seems and...
C       G
I quit, I give up
           A          G            F
Nothing's good enough for anybody else
    G
It seems and...

A     C              D          F    G      A
     Being alone is the, is the best way to be
C                   D       F     G     A
When Im by myself its the best way to be
C                   D       F     G     A
When Im all alone its the best way to be
C                   D                 G 
When Im by myself, nobody else can say goodbye

C G A G F  G

             C       G      A     G     
Everything is temporary anyway
                C        G
When the streets are wet
            A            G      
the colors slip into the sky
    C                 G                       A
But I dont know why that means you and I are,
              G
That means you and...


C       G 
I quit, I give up
           A          G            F
Nothing's good enough for anybody else
    G
It seems and...
C       G
I quit, I give up
           A          G            F
Nothing's good enough for anybody else
    G
It seems and...

A     C              D          F    G      A
     Being alone is the, is the best way to be
C                   D       F     G     A
When Im by myself its the best way to be
C                   D       F     G     A
When Im all alone its the best way to be
C                   D                 G 
When Im by myself, nobody else can say 

- Final
(Me, Im a part of your circle of friends...)

e|----3----3----3----3----3----3---3--| 
B|----3----3----3----3----3----3---3--| 
G|-----0----0----0----0----0----0--0--| 
D|---0----0----0----0----0----0----0--|
A|--3---------0---------3-------------|  
E|-------3---------3---------3--------| 
Tap to rate this tab
# A B C D E F G H I J K L M N O P Q R S T U V W X Y Z