Song name
# A B C D E F G H I J K L M N O P Q R S T U V W X Y Z

Bowling For Soup - Right About Now tab

Intro (on bass when live)
E----------------------------------------------------------------------|
B----------------------------------------------------------------------|
G----------------------------------------------------------------------|
D----------------------------------------------------------------------|
A--------6---9---6--9--7-7-6-6-4-4-6-6---------------------------------|
E--7--7----7---7-------------------------------------------------------| (3x)

E----------------------------------------------------------------------|
B----------------------------------------------------------------------|
G----------------------------------------------------------------------|
D--8/9-9-9-9-9-9-9-8/9-9-9-9-9-9-9-8-8-8-8-8-8-8-8-6-6-6-4-4-4-4-------|
A----------------------------------------------------------------------|
E----------------------------------------------------------------------|


E----------------------------------------------------------------------|
B----------------------------------------------------------------------|
G----------------------------------------------------------------------|
D-11/13-13-13-13-13-13-13-11/13-13-13-13-13-13-13-11-11-11-11-11-11-11-|
A----------------------------------------------------------------------|
E----------------------------------------------------------------------|

E----------------------------------------------------------------------|
B----------------------------------------------------------------------|
G----------------------------------------------------------------------|
D-11-6-6-6-4-4-4-4-----------------------------------------------------|
A----------------------------------------------------------------------|
E----------------------------------------------------------------------|


(Verse)
E----------------|
B----------------|
G------9--11--9--|
D--9---9--11--9--|
A--9---7--9---7--|
E--7-------------|(2x)

(Pre Chorus)
E------------------------|
B------------------------|
G-----6--9---------6--9--|
D--6--6--9--9---6--6--9--|
A--6--4--7--9---6--4--7--|
E--4--------7---4--------|

(Chorus)
E----------------|
B----------------|
G------9--11--9--|
D--9---9--11--9--|
A--9---7--9---7--|
E--7-------------|(2x)

Intro
Pre Chorus
Chorus
Tap to rate this tab
# A B C D E F G H I J K L M N O P Q R S T U V W X Y Z