Song name
# A B C D E F G H I J K L M N O P Q R S T U V W X Y Z

Bowling For Soup - How Far This Can Go tab

-----------------------------------------------------------------------------
             How Far This Can Go - Bowling For Soup
-----------------------------------------------------------------------------
Tabbed by: Fabio-BlenderBR
 - Please rate and send me your feedback -

- Intro : 
e|---------------------------------------------|
B|---------------------------------------------|
G|-99999-8888-44444----------------------------|
D|-99999-9999-44444--77777-99999---------------|
A|-77777-6666-22222--77777-99999---------------|
E|-------------------55555-77777---------------|


 - Verse :
(Itís cold outside, light a fire..)
e|-----------------------------------------------|
B|-----------------------------------------------|
G|-9999999-8888-44444----------------------------|
D|-9999999-9999-44444--77777-99999---------------|
A|-7777777-6666-22222--77777-99999---------------|  2x
E|---------------------55555-77777---------------|

 - Pre Chorus :
(So hold on and be strong...)
e|-----------------------------------------------|
B|-----------------------------------------------|
G|-------44444-66666----------------44444--------|
D|-44444-44444-66666-77777-66-44444-44444--------|
A|-44444-22222-44444-77777-66-44444-22222--------|
E|-22222-------------55555-44-22222--------------|

 - Chorus : 
(Letís take it fast to slow...)
e|-----------------------------|
B|-----------------------------|
G|-9999999-8888----------------|
D|-9999999-9999-7777-----------|
A|-7777777-6666-7777-----------|  2x
E|--------------5555-----------|

(If weíre never stop believing, itís gonna be alright...)
e|----------------------------------|
B|----------------------------------|
G|-66666----------------4-----------|
D|-66666-44444-66-77777-4-----------|
A|-44444-44444-66-77777-2-----------|
E|-------22222-44-55555-------------|

 - Intro :
Guitar 1
e|---------------|
B|---------------|
G|-99999-8888----|
D|-99999-9999----|
A|-77777-6666----|
E|---------------|

Guitar 2
e|------------------------|
B|------------------------|
G|-9999--11-12--11-9------|
D|-xxxx--x--x---x--x------|
A|-7777--9--11--9--7------|
E|------------------------|

 - Verse 2 :
(Start the car, hit the gas...)
e|-----------------------------------------------|
B|-----------------------------------------------|
G|-9999999-8888-44444----------------------------|
D|-9999999-9999-44444--77777-99999---------------|
A|-7777777-6666-22222--77777-99999---------------|  2x
E|---------------------55555-77777---------------|

 - Pre Chorus :
(So hold on and be strong...)
e|-----------------------------------------------|
B|-----------------------------------------------|
G|-------44444-66666----------------44444--------|
D|-44444-44444-66666-77777-66-44444-44444--------|
A|-44444-22222-44444-77777-66-44444-22222--------|
E|-22222-------------55555-44-22222--------------|

 - Chorus : 
(Letís take it fast to slow...)
e|-----------------------------|
B|-----------------------------|
G|-9999999-8888----------------|
D|-9999999-9999-7777-----------|
A|-7777777-6666-7777-----------|  2x
E|--------------5555-----------|


(If weíre never stop believing, itís gonna be alright...)
e|----------------------------------|
B|----------------------------------|
G|-66666----------------44444-------|
D|-66666-44444-66-77777-44444-------|
A|-44444-44444-66-77777-22222-------|
E|-------22222-44-55555-------------|

 - Bridge :
(By the time the curtain's falling...)
e|-------------------------------------------------------|
B|-------------------------------------------------------|
G|-------99999-66666----------------99999-77777-44444----|
D|-77777-99999-66666-44444-66-77777-99999-77777-44444----|
A|-77777-77777-44444-44444-66-77777-77777-55555-22222----|
E|-55555-------------22222-44-55555----------------------|

 - Solo :
Guitar 1
e|-----------------7~------------------------------------|
B|-----------5-7~----9-7----12~-12-10-9-7-5--44--2-------|
G|----7-9--7-------------9-------------------------------|
D|--9----------------------------------------------------|
A|-------------------------------------------------------|
E|-------------------------------------------------------|

Guitar 2
e|-----------------------------------------------|
B|-----------------------------------------------|
G|-9999999-8888-44444----------------------------|
D|-9999999-9999-44444--77777-99999---------------|
A|-7777777-6666-22222--77777-99999---------------|  2x
E|---------------------55555-77777---------------|

 - Pre Chorus :
(So hold on and be strong...)
e|-------------------------------------------|
B|-------------------------------------------|
G|-------44444-66666----------------4--------|
D|-44444-44444-66666-77777-66-44444-4--------|
A|-44444-22222-44444-77777-66-44444-2--------|
E|-22222-------------55555-44-22222----------|

 - Chorus :
(Take it fast to slow...)
e|------------------------------------------------|
B|------------------------------------------------|
G|-9-9-9-9-9-9-8-8-8-8-8-8------------------------|
D|-9-9-9-9-9-9-9-9-9-9-9-9-7-7-7-7-7-7------------|
A|-7-7-7-7-7-7-7-7-7-7-7-7-7-7-7-7-7-7------------|  2x
E|-------------------------5-5-5-5-5-5------------|

(If weíre never stop believing, itís gonna be alright...)
e|----------------------------------|
B|----------------------------------|
G|-66666----------------44444-------|
D|-66666-44444-66-77777-44444-------|
A|-44444-44444-66-77777-22222-------|
E|-------22222-44-55555-------------|

(How far this can go...)
e|------------------------|
B|------------------------|
G|-999999-888888----------|
D|-999999-999999-777777---|
A|-777777-666666-777777---|  2x
E|---------------555555---|

e|------------------------|
B|------------------------|
G|-999999-666666----------|
D|-999999-666666-777777---|
A|-777777-444444-777777---| 
E|---------------555555---|

e|----------------|
B|----------------|
G|-999999-8---9---|
D|-999999-9---9---|
A|-777777-6---7---|  
E|----------------|
Tap to rate this tab
 
# A B C D E F G H I J K L M N O P Q R S T U V W X Y Z