Song name
# A B C D E F G H I J K L M N O P Q R S T U V W X Y Z

Bowling For Soup - I Dont Wanna Rock tab

Here's the main rhythm guitar for one of the best BFS songs...

I DON'T WANNA ROCK - Bowling For Soup
"A HANGOVER YOU DON'T DESERVE"
Tuning:Standard (EADGBe)

Intro:
    G  C  G  C E-F#-G  C  G  C E-F#-G
e|-------------------------------------|
B|-------------------------------------|
G|-----5-----5---------5-----5---------|
D|--5--5--5--5-2/4/-5--5--5--5-2/4/-5--|
A|--5--3--5--3-2/4/-5--3--5--3-2/4/-5--|
E|--3-----3----0/2/-3-----3----0/2/-3--|

Verse:
    G  C  D  G  C  D  G  C  D  G  C E-F#
e|---------------------------------------|
B|---------------------------------------|
G|-----5--7-----5--7-----5--7-----5------|
D|--5--5--7--5--5--7--5--5--7--5--5-2/4--|
A|--5--3--5--5--3--5--5--3--5--5--3-2/4--|
E|--3--------3--------3--------3----0/2--|

Prechorus:
    C  D  C  D
e|--------------|
B|--------------|
G|--5--7--5--7--|
D|--5--7--5--7--|
A|--3--5--3--5--|
E|--------------|

Chorus:
    G~~~  C  D  G  C  G  C E-F#
e|------------------------------|
B|------------------------------|
G|--------5--7-----5-----5------|
D|--5~~~--5--7--5--5--5--5-2/4--|
A|--5~~~--3--5--5--3--5--3-2/4--|
E|--3~~~--------3-----3----0/2--|

Bridge:
    Gx C  E  F#(x4)  E  B  C  G  F#(X3)  E  B  C  D  G
e|----------------|-------------------|----------------|
B|----------------|-------------------|----------------|
G|-----5----------|-----4--5----------|-----4--5--7----|
D|--5x-5--2--4----|--2--4--5--5--4----|--2--4--5--7--5-|
A|--5x-3--2--4----|--2--2--3--5--4----|--2--2--3--5--5-|
E|--3x----0--2----|--0--------3--2----|--0-----------3-|

thats it
Tap to rate this tab
# A B C D E F G H I J K L M N O P Q R S T U V W X Y Z