Song name
# A B C D E F G H I J K L M N O P Q R S T U V W X Y Z

Bowling For Soup - Last Call Causualty tab

e-444-000-222------------444-000-222------------444-000-222-------------|
b-------------00---------------------00---------------------00----------|
g----------------22-44------------------44-22------------------44-22----|
d-----------------------------------------------------------------------|
a-----------------------------------------------------------------------|
e-----------------------------------------------------------------------|

e-444-000-222------------444-000-222-------------------------------------|
b--------------00--------------------00----------------------------------|
g-----------------22-44-----------------44-22----------------------------|
d------------------------------------------------------------------------|
a------------------------------------------------------------------------|
e------------------------------------------------------------------------|
play this between chorus and verse
Tap to rate this tab
# A B C D E F G H I J K L M N O P Q R S T U V W X Y Z