Song name
# A B C D E F G H I J K L M N O P Q R S T U V W X Y Z

Bowling For Soup - Ohio Come Back To Texas tab

intro
e|---------------------------------------------------------------------------|
B|---------------------------------------------------------------------------|
G|---------------------------------------------------------------------------|
D|4444444444444444-2222222222222222-------------------444444444--------------|palm mute
A|2222222222222222-2222222222222222-66666666-44444444-222222222--------------|
E|-----------------0000000000000000-44444444-22222222------------------------|
  
e|---------------------------------------------------------------------------|
B|---------------------------------------------------------------------------|
G|---------------------------------------------------------------------------|
D|4444444444444444-2222222222222222-------------------4444444444444444-------|
A|2222222222222222-2222222222222222-66666666-44444444-2222222222222222-------|
E|-----------------0000000000000000-44444444-22222222------------------------|
  


pre chorus
e|-0-----------------0-------------------------------------------------------|
B|-0-----------------0-------------------------------------------------------|
G|-0-----------------0-------------------------------------------------------|
D|22222222-44444444-22222222-44444444-------------------222222222------------|
A|22222222-22222222-22222222-22222222-66666666-44444444-222222222------------|
E|00000000----------00000000----------44444444-22222222-000000000------------|
  


chorus
e|---------------------------------------------------------------------------|
B|---------------------------------------------------------------------------|
G|---------------------------------------------------------------------------|
D|9999999999999999-44444444----------2222222222222222-44444444---------------|
A|7777777777777777-22222222-44444444-2222222222222222-22222222-44444444------|
E|0000000000000000----------22222222-0000000000000000----------22222222------|
  

e|---------------------------------------------------------------------------|
B|---------------------------------------------------------------------------|
G|---------------------------------------------------------------------------|
D|------------------22222222-44444444-66666666----------2222222222222222-----|
A|66666666-44444444-22222222-22222222-44444444-44444444-2222222222222222-----|
E|44444444-22222222-00000000-------------------22222222-0000000000000000-----|
  


verse
e|---------------------------------------------------------------------------|
B|---------------------------------------------------------------------------|
G|---------------------------------------------------------------------------|
D|4444444444444444-2222222222222222-------------------444444444--------------|palm mute
A|2222222222222222-2222222222222222-66666666-44444444-222222222--------------|
E|-----------------0000000000000000-44444444-22222222------------------------|

e|---------------------------------------------------------------------------|
B|---------------------------------------------------------------------------|
G|---------------------------------------------------------------------------|
D|4444444444444444-2222222222222222-------------------4444444444444444-------|
A|2222222222222222-2222222222222222-66666666-44444444-2222222222222222-------|
E|-----------------0000000000000000-44444444-22222222------------------------|



Pre Chorus
e|-0-----------------0-------------------------------------------------------|
B|-0-----------------0-------------------------------------------------------|
G|-0-----------------0-------------------------------------------------------|
D|22222222-44444444-22222222-44444444-------------------222222222------------|
A|22222222-22222222-22222222-22222222-66666666-44444444-222222222------------|
E|00000000----------00000000----------44444444-22222222-000000000------------|



Chorus
e|---------------------------------------------------------------------------|
B|---------------------------------------------------------------------------|
G|---------------------------------------------------------------------------|
D|9999999999999999-44444444----------2222222222222222-44444444---------------|
A|7777777777777777-22222222-44444444-2222222222222222-22222222-44444444------|
E|0000000000000000----------22222222-0000000000000000----------22222222------|
 

e|---------------------------------------------------------------------------|
B|---------------------------------------------------------------------------|
G|---------------------------------------------------------------------------|
D|------------------22222222-44444444-66666666----------2222222222222222-----|
A|66666666-44444444-22222222-22222222-44444444-44444444-2222222222222222-----|
E|44444444-22222222-00000000-------------------22222222-0000000000000000-----|



Bridge1
e|---------------------------------------------------------------------------|
B|---------------------------------------------------------------------------|
G|---------------------------------------------------------------------------|
D|2222222222222222-4444444444444444-2222222222222222-4444444444444444--------|
A|2222222222222222-2222222222222222-2222222222222222-2222222222222222--------|--
E|0000000000000000------------------0000000000000000-------------------------|   \
                                                                                  -- Palm Mute
e|---------------------------------------------------------------------------|   /
B|---------------------------------------------------------------------------|--
G|---------------------------------------------------------------------------|
D|2222222222222222-4444444444444444-------------------22222222---------------|
A|2222222222222222-2222222222222222-66666666-44444444-22222222-44444444444---|
E|0000000000000000------------------44444444-22222222-00000000-22222222222---|
  


Chorus x2
e|---------------------------------------------------------------------------|
B|---------------------------------------------------------------------------|
G|---------------------------------------------------------------------------|
D|9999999999999999-44444444----------2222222222222222-44444444---------------|
A|7777777777777777-22222222-44444444-2222222222222222-22222222-44444444------|
E|0000000000000000----------22222222-0000000000000000----------22222222------|
  texas.           same.    away.    accent.          about.   state

e|---------------------------------------------------------------------------|
B|---------------------------------------------------------------------------|
G|---------------------------------------------------------------------------|
D|------------------22222222-44444444-66666666----------2222222222222222-----|
A|66666666-44444444-22222222-22222222-44444444-44444444-2222222222222222-----|
E|44444444-22222222-00000000-------------------22222222-0000000000000000-----|



end
e|---------------------------------------------------------------------------|
B|---------------------------------------------------------------------------|
G|---------------------------------------------------------------------------|
D|66666666----------22222222---------4---------------------------------------|
A|44444444-44444444-22222222---4-6---2_______--------------------------------|
E|---------22222222-00000000___2-4-0-----------------------------------------|
Tap to rate this tab
# A B C D E F G H I J K L M N O P Q R S T U V W X Y Z