Song name
# A B C D E F G H I J K L M N O P Q R S T U V W X Y Z

Bowling For Soup - Trucker Hat tab

-------------------------------------------------------------------------------
			     TRUCKER HAT - Bowling For Soup
-------------------------------------------------------------------------------
Tabbed by:Idiot_Son

Tuning:Standard (EADGBe)

Intro:
              A 
e|----------------|
B|----------------|
G|----------------|
D|--(7)-x-x-x-7\--|
A|--(7)-x-x-x-7\--|
E|--(5)-x-x-x-5\--|

Verse:
    E  A    B
e|----------------|
B|----------------|
G|----------------|
D|--2--7----9-----|
A|--2--7----9-----|
E|--0--5----7-----|

PreChorus:
    C# E  A  B
e|----------------|
B|----------------|
G|--6-------------|
D|--6--2--7--9----|
A|--4--2--7--9----|
E|-----0--5--7----|

Chorus
    E  A  E  A  C# E  A  B
e|---------------------------|
B|---------------------------|
G|--------------6------------|
D|--2--7--2--7--6--2--7--9---|
A|--2--7--2--7--4--2--7--9---|
E|--0--5--0--5-----0--5--7---|

Bridge:
    C# E  A  B
e|-----------------|
B|-----------------|
G|--6--------------|
D|--6--2--7--9-----|
A|--4--2--7--9-----|
E|-----0--5--7-----|

too easy. listen to the cd to get the rythym and stuff...
Tap to rate this tab
# A B C D E F G H I J K L M N O P Q R S T U V W X Y Z