Song name
# A B C D E F G H I J K L M N O P Q R S T U V W X Y Z

Bowling For Soup - Next Ex-girlfriend tab

bowling for soup - Next ex-girlfriend
Tabbed By: Brad BFS
Email: yl.farrell@btinternet.com

Tuning: Drop D (D A D G B E)

this is the best i could do, it's my first tab, i couldnt work out the bridge 

INTRO guitar 1
E|----------------------------------------------------------------||
B|-3-2-3--3-2-3--3-2-3-5-3-2-3------------------------------------||
G|----------------------------------------------------------------||
D|----------------------------------------------------------------||
A|----------------------------------------------------------------||
E|----------------------------------------------------------------||

guitar 2

first time only play each chord once
E|----------------------------------------------------------------||
B|----------------------------------------------------------------||
G|-7-7-7-7-7-4-4-4-4-4-2-2-2-2-2----------------------------------||
D|-7-7-7-7-7-4-4-4-4-4-2-2-2-2-2-5-5-5-5-5------------------------||
A|-5-5-5-5-5-2-2-2-2-2-0-0-0-0-0-5-5-5-5-5------------------------||
D|-------------------------------5-5-5-5-5------------------------||


E|----------------------------------------------------------------||
B|----------------------------------------------------------------||
G|----------------------------------------------------------------||
D|-5-5-5-5-5-4-4-4-4-4-2-2-2-2-2-0-0-0-0-0------------------------||
A|-5-5-5-5-5-4-4-4-4-4-2-2-2-2-2-0-0-0-0-0------------------------||
D|-5-5-5-5-5-4-4-4-4-4-2-2-2-2-2-0-0-0-0-0------------------------||

verse
E|----------------------------------------------------------------||
B|----------------------------------------------------------------||
G|-7-7-7-7-7-7----------------------------------------------------||
D|-7-7-7-7-7-7-7-7-7-7-7-7-5-5-5-5-5-5-/9-9-9-9/-7-7-7-7----------||
A|-5-5-5-5-5-5-7-7-7-7-7-7-5-5-5-5-5-5-/9-9-9-9/-7-7-7-7----------||
D|-------------7-7-7-7-7-7-5-5-5-5-5-5-/9-9-9-9/-7-7-7-7----------||
PM ***************************************************

PRE CHORUS

E|----------------------------------------------------------------||
B|----------------------------------------------------------------||
G|----------------------------------------------------------------||
D|-5-5-5-5-5-7-7-7-7-7-9-9-9-9-9-5-5-5-5-5-5-5-5-5-5--------------||
A|-5-5-5-5-5-7-7-7-7-7-9-9-9-9-9-5-5-5-5-5-5-5-5-5-5--------------||
D|-5-5-5-5-5-7-7-7-7-7-9-9-9-9-9-5-5-5-5-5-5-5-5-5-5--------------||
PM . .   .   . .   .   . .   .   . .   .   . .   .

E|----------------------------------------------------------------||
B|----------------------------------------------------------------||
G|-----------3-3-3-3-3-5-5-5-5-5-5--------------------------------||
D|-7-7-7-7-7-3-3-3-3-3-5-5-5-5-5-5--------------------------------||
A|-7-7-7-7-7-1-1-1-1-1-3-3-3-3-3-3--------------------------------||
D|-7-7-7-7-7------------------------------------------------------||
PM . .   .

CHORUS

E|----------------------------------------------------------------||
B|----------------------------------------------------------------||
G|-7/---7-7-7-7-7-7-7-7-------------------------------------------||
D|-7/---7-7-7-7-7-7-7-7-------5--------5--------5--------5--------||
A|-5/-------------------------5--------5--------5--------5--------||
D|----------------------------5-(5)(5)-5-(5)(5)-5-(5)(5)-5-(5)(5)-||
       (quietly)  (brackets mean harmonics)

E|----------------------------------------------------------------||
B|----------------------------------------------------------------||
G|-------------------------------------7-7-7-7-7------------------||
D|-7--------7--------7--------7--------7-7-7-7-7-9-9-9-9-9--------||
A|-7--------7--------7--------7--------5-5-5-5-5-9-9-9-9-9--------||
E|-7-(7)(7)-7-(7)(7)-7-(7)(7)-7-(7)(7)-----------9-9-9-9-9--------||

second time play after the first bit play:

E|----------------------------------------------------------------||
B|----------------------------------------------------------------||
G|-3-3-3-3-5-5-5-5------------------------------------------------||
D|-3-3-3-3-5-5-5-5------------------------------------------------||
A|-1-1-1-1-3-3-3-3------------------------------------------------||
D|----------------------------------------------------------------||

BRIDGE

E|----------------------------------------------------------------||
B|----------------------------------------------------------------||
G|----------------------------------------------------------------||
D|-5-5-5-5-7-7-7-0------------------------------------------------||
A|-5-5-5-5-7-7-7-0------------------------------------------------||
D|-5-5-5-5-7-7-7-0-4-4-4-5-4-2-0----------------------------------||
PM . . . . . . . 

OUTRO  guitar 1 

E|----------------------------------------------------------------||
B|-3-2-3--3-2-3--3-2-3--3-2-3--3-2-3------------------------------||
G|----------------------------------------------------------------||
D|----------------------------------------------------------------||
A|----------------------------------------------------------------||
D|----------------------------------------------------------------||

guitar2
E|----------------------------------------------------------------||
B|----------------------------------------------------------------||
G|----------------------------------------------------------------||
D|-5-----5-----5-----5-----5--------------------------------------||
A|-5-----5-----5-----5-----5--------------------------------------||
D|-5-----5-----5-----5-----5--------------------------------------||

enjoy
Tap to rate this tab
# A B C D E F G H I J K L M N O P Q R S T U V W X Y Z