Guitaretab - guitar tabs
Song name
# A B C D E F G H I J K L M N O P Q R S T U V W X Y Z

Bowling For Soup - Shut Up And Smile tab

-----------------------------------------------------------------
Shut Up And Smile - Bowling For Soup
-----------------------------------------------------------------
Tabbed by: Bair
Email: bair_morritt@hotmail.com

Tuning: Standard

**This tab is 100%. The others were in drop D which BFS dont play in. Also there were 
errors**

Piano Intro:
e|------------------------------------------|
B|----7-5-----7-5-----7-5-----7-5-----------|
G|--7-------7-------7-------7---------------|
D|--------7-------7-------7-------7---------|
A|------------------------------------------|
E|------------------------------------------|

Fill:
e|------------------------------------------|
B|------------------------------------------|
G|--7777777-----------4444444---------------|
D|--7777777--4444444--4444444--22222-2-4-2--|
A|--5555555--4444444--2222222--22222-2-4-2--|
E|-----------2222222-----------00000-0-2-0--|

Verse:
e|------------------------------------------|
B|------------------------------------------|
G|--7777777-----------4444444---------------|
D|--7777777--4444444--4444444--22222-2-4-2--|
A|--5555555--4444444--2222222--22222-2-4-2--|
E|-----------2222222-----------00000-0-2-0--|
"It's not the end of the world, in fact...."

e|-------------------------------------------------|
B|-------------------------------------------------|
G|--7777777-----------4444444----------------------|
D|--7777777--4444444--4444444--222222--5555--7777--|
A|--5555555--4444444--2222222--222222--5555--7777--|
E|-----------2222222-----------000000--3333--5555--|
"Anything thats going down, or how we're supposed...."

Chorus:
e|------------------------------------------|
B|------------------------------------------|
G|--777777777777----------------------------|
D|--777777777777--555555555555--(X2)--------|
A|--555555555555--555555555555--------------|
E|----------------333333333333--------------|
"Sail around the world and tell them all...."

e|--------------------------------------------|
B|--------------------------------------------|
G|--------------------------------------------|
D|--22222222--55555555--22222222--5555--7777--|
A|--22222222--55555555--22222222--5555--7777--|
E|--00000000--33333333--00000000--3333--5555--|
"Through you're arms around someone...."

-Then Fill
-Then Verse
-Then Chorus

Interlude G1:
e|------------------------------------------|
B|------------------------------------------|
G|--7-7-7b-7b--7-7-7b-7-7b------------------|
D|------------------------------------------|
A|------------------------------------------|
E|------------------------------------------|
[ Tab from: http://www.guitaretab.com/b/bowling-for-soup/60473.html ]
Interlude G2:
e|------------------------------------------------|
B|------------------------------------------------|
G|--77777777--44444444----------------------------|
D|--77777777--44444444--55555555--77777777--(X2)--|
A|--55555555--22222222--55555555--77777777--------|
E|----------------------33333333--55555555--------|
"All we need is love and beer and old school metal"

-Then Chorus

Outro:
e|------------------------------------------------|
B|------------------------------------------------|
G|--77777777--------------------------------------|
D|--77777777--44444444--55555555--77777777--(X3)--|
A|--55555555--44444444--55555555--77777777--------|
E|------------22222222--33333333--55555555--------|
"All we need is love and beer...."

----------------------------------------------------------------
Lyrics:

Its not the end of the world
In fact its not even the end of the summer
But thank god the tv is on
Cuz theres no way we could know
Anything that痴 goin down
Or how were supposed to be feeling about it
I cant tell you how much I wish we could shut up and smile, yeah

Sail around the world and tell them all to keep singing it
la la la la la la
all we needs a harmony and we値l convince the world to sing
la la la la la la
throw your arms around someone (throw your arms around someone)
maybe spread a little love
I know it sounds a little dumb (or maybe I知 a little drunk)
But all we need is some ice cream and a hug

Take a good look around
Does life really suck
Are we just complaining
I hope that this mic is on (testing 1, 2)
Cuz im on a roll here
I hope this is making some sense
I hope that you値l throw up your hands and sing it
And tell all the haters that they should just shut up and smile, yeah

Sail around the world and tell them all to keep singing it
la la la la la la
all we needs a harmony and we値l convince the world to sing
la la la la la la
throw your arms around someone (throw your arms around someone)
maybe spread a little love
I know it sounds a little dumb (or maybe I知 a little drunk)
But all we need is some ice cream

All we need is love and beer
And old school metal and holiday cheer
TO be happy
(All you need is someone near)
like ben and jerry
(to hold you close and pretend that they care)

can we all just, get along now
we found something that we all have in common now
we can hold hands, do keg stands
water skiing sounds great to me now

Sail around the world and tell them all to keep singing it
la la la la la la
all we needs a harmony and we値l convince the world to sing
la la la la la la
throw your arms around someone (throw your arms around someone)
maybe spread a little love
I know it sounds a little dumb (or maybe we池e a little drunk)
But all we need is some ice cream and a hug

(Chanting 鄭ll we need is love and beer)
all we need is some ice cream and a hug
all we need is some ice cream and a hug
all we need is some ice cream and a hug
Related for Shut Up And Smile tab