Song name
# A B C D E F G H I J K L M N O P Q R S T U V W X Y Z

Bowling For Soup - Bipolar tab

Tabbed by:  Pat.
Email:  RvengeoFaithful7@aol.com


Hey everyone, this is my first tab, so kinda bare with me if it's not in tip top shape.  
of the tabs sounded close to the song, as least as I've heard it, so here's my version:


Intro:

e|---------------------------------------------------------------------------
B|---------------------------------------------------------------------------
G|---------5~----------9~----------4~----------7/9/7-------------------------
D|-------------------------------------5-55-55-------------------------------
A|-5-55-55-----9-99-99-----2-22-22-----3-33-33-------------------------------
E|-3-33-33-----7-77-77-----0-00-00-------------------------------------------


Verse (x2):

e|---------------------------------------------------------------------------
B|---------------------------------------------------------------------------
G|---------------------------------------------------------------------------
D|----------4-44-44-----------5-55-55----------------------------------------
A|-5-55-55--2-22-22--2-22-22--3-33-33----------------------------------------
E|-3-33-33-----------0-00-00-------------------------------------------------

Chorus:
"I waited..."                                 "Why can't you be bisexual.."
e|---------------------------------------------------------------------------
B|---------------------------------------------------------------------------
G|---------------------------------------------------------------------------
D|----------44444444-55555555-22222222-----------------55554444--------------
A|-55555555-22222222-33333333-00000000--x2----55555555-33332222--------------
E|-33333333-----------------------------------33333333-----------------------


-Intro-
-Verse-
-Chorus-

Bridge:


e|---------------------|
B|---------------------|
G|---------------------|
D|-5555-7777/9/7-5-----|
A|---------------------|
E|---------------------|

"Get up, get up, what'cha doin' in bed?"
e|-----------------------------------------|
B|-----------------------------------------|
G|-----------------------------------------|
D|-55555555-777777777-444444444-55555555---|
A|-33333333-555555555-222222222-33333333---|
E|-----------------------------------------|  x3

Pre-Verse:

e|---------------------|
B|---------------------|
G|---------------------|
D|---------------------|
A|-5-55-55-------------|
E|-3-33-33-------------|

-Chorus-
-Pre-Verse-


And, that's it!  Hope it helps.  Please rate and lemme know so I'll know wheather or not 
keep doin' this ^^.
A side note, the end of the chorus might be a little off.  But, eh, I'll fix it.

Thanks guys!
Tap to rate this tab
# A B C D E F G H I J K L M N O P Q R S T U V W X Y Z