Song name
# A B C D E F G H I J K L M N O P Q R S T U V W X Y Z

Bowling For Soup - Major Denial tab

Help us improve GuitareTab! Take a short survey!
-------------------------------------------------------------------------------
			     Major Denial – Bowling for Soup
-------------------------------------------------------------------------------
Tabbed by: Matt Mostovac
Email: m_mostovac@hotmail.com

Key of A
Tuning: Standard

Verse:    x2 (1st time - single ring out downstokes, 2nd time - full strumming; 
stop on last chord)
e|---------------------------------------------------------------------------|
B|---------------------------------------------------------------------------|
G|------9---11--9--7---7-------7---9-----------------------------------------|
D|--7---9---11--9--7---7---7---7---9-----------------------------------------|
A|--7---7----9--7--5---5---7---5---7-----------------------------------------|
E|--5----------------------5-------------------------------------------------|
“You've got style, You've got class
You've got a boyfriend that wants to kick my ass
I made him angry, I made him annoyed
When I sent you dirty pictures from my Polaroid

Sorry about the tracks in your yard
For taking out the tree and for hitting your dog
I didn't see it coming, it was moving to fast
Here's a hundred dollars for the bodycast”

Chorus:
e|---------------------------------------------------------------------------|
B|---------------------------------------------------------------------------|
G|-------7---------7--------------9----9-------------------------------------|
D|--7----7----7----7----7----7----9----9-------------------------------------|
A|--7----5----7----5----7----7----7----7-------------------------------------|
E|--5---------5---------5----5-----------------------------------------------|
“We could get married in Las Vegas
I know that my mom will take us
Put it all on black and let it ride”

Verse x2 (palm muted)
e|---------------------------------------------------------------------------|
B|---------------------------------------------------------------------------|
G|------9---11--9--7---7-------7---9-----------------------------------------|
D|--7---9---11--9--7---7---7---7---9-----------------------------------------|
A|--7---7----9--7--5---5---7---5---7-----------------------------------------|
E|--5----------------------5-------------------------------------------------|
“I saw you at the club downtown
We danced together till you turned around
and saw me in my Travolta pose
Then you kicked me in the nuts and ya broke my nose”

Chorus

Post Chorus:
e|---------------------------------------------------------------|
B|---------------------------------------------------------------|
G|--7-----7-----7--------7---------------------------------------|
D|--7--7--7--7--7--7--9--7-(Stop)--------------------------------|
A|--5--7--5--7--5--7--9--5---------------------------------------|
E|-----5-----5-----5--7------------------------------------------|
“Cuz it's so hard being me
Victim of your no loser policy
And I know that one day you will see
That your so damn lucky to be with a guy like me”


Interlude:
e|--------------------------------------------------------------------|
B|--5-\2-2-/10-10-10-9-7----(x3)----5-\2-2-/10-10-10-/12-10-10-(ring)-|
G|--------------------------------------------------------------------|
D|--------------------------------------------------------------------|
A|--------------------------------------------------------------------|
E|--------------------------------------------------------------------|
 Played with these chords (palm muted)
e|---------------------------------------------------------------------|
B|---------------------------------------------------------------------|
G|------11--9------11--9------11--9--------11--9--7--------------------|
D|--7---11--9--7---11--9--7---11--9----7---11--9--7--------------------|
A|--7----9--7--7----9--7--7----9--7----7----9--7—-5-(ring)-------------|
E|--5----------5----------5------------5-------------------------------|


Bridge:   (ring out chords)
e|---------------------------------------------------------------------|
B|---------------------------------------------------------------------|
G|--7-------7----------------------------------------------------------|
D|--7---7---7---7------------------------------------------------------|
A|--5---7---5---7------------------------------------------------------|
E|------5-------5------------------------------------------------------|
“What can I say, feeling lonely
So do you think we could hang around, you get to know me

Bridge cont.  (palm muted)
e|---------------------------------------------------------------------|
B|---------------------------------------------------------------------|
G|------------------7--9----9-—7---------------------------------------|
D|--9----7----9-11--7--9----9--7---------------------------------------|
A|--9----7----9-11--5--7----7--5---------------------------------------|
E|--7----5----7--9-----------------------------------------------------|
Tell me things you'd like to show me, Tie me up like I'm a pony,
Ride me to the moon, you can spank me till i'm black and blue
and bleeding too and begging you to stop!”


Chorus


Post Chorus/Outro:
e|---------------------------------------------------------------|
B|---------------------------------------------------------------|
G|--7-----7-----7--------7-----------------7---------------------|
D|--7--7--7--7--7--7--9--7-(drum-solo)--9--7---------------------|
A|--5--7--5--7--5--7--9--5--------------9--5---------------------|
E|-----5-----5-----5--7-----------------7------------------------|
“Cuz it's so hard being me
Victim of your no loser policy
And I know that one day you will see
That your so damn lucky to be… 
So damn lucky to be with a guy like me?”



| /  slide up
| \  slide down
| h  hammer-on
| p  pull-off
| ~  vibrato
| +  harmonic
| x  Mute note
===============================================================================

Related for Major Denial tab