Song name
# A B C D E F G H I J K L M N O P Q R S T U V W X Y Z

Bowling For Soup - Where To Begin tab

Intro/Outro
|-----------------------|
|-----------------------|
|-9-------9-------9-----|
|---12------12------12--|
|------12------12-------|
|-----------------------|

Intro:
   D  A  G  A
e|-------------|
B|-------------|
G|-7-----------|
D|-7--7--5--7--|   
A|-5--7--5--7--|  
E|----5--3--5--|   


Verse:
   D~  G~  D~  G~  A
e|--------------------|
B|--------------------|
G|-7~------7~---------|
D|-7~--5~--7~--5~--7--|   
A|-5~--5~--5~--5~--7--|  
E|-----3~------3~--5--|   

Pre-Chorus:
   DD  AA  F# B  A
e|------------------|
B|------------------|
G|-77---------4-----|
D|-77--77--4--4--7--|   
A|-55--77--4--2--7--|  
E|-----55--2-----5--|   

Chorus:
   D  A  G  A
e|-------------|
B|-------------|
G|-7-----------|
D|-7--7--5--7--|   
A|-5--7--5--7--|  
E|----5--3--5--|   

Bridge:
    B  D  A  B  D  A  F# G  A
e|-----------------------------|
B|-----------------------------|
G|--4--7-----4--7--------------|
D|--4--7--7--4--7--7--4--5--7--|   
A|--2--5--7--2--5--7--4--5--7--|  
E|--------5--------5--2--3--5--|  

Tap to rate this tab
# A B C D E F G H I J K L M N O P Q R S T U V W X Y Z