Song name
# A B C D E F G H I J K L M N O P Q R S T U V W X Y Z

Bowling For Soup - Really Might Be Gone tab

----------------------------------------------------------------------------
		 REALLY MIGHT BE GONE - Bowling For Soup
----------------------------------------------------------------------------
Tabbed by: (Super)Nic Foley
Tuning: Standard (EADGBe)

intro:
lead-                 play x8
e|--------------------------|
B|--------------------------|
G|--------------------------|
D|-00-7-0-5-00-4-00-4-0-2h4-|
A|--------------------------|
E|--------------------------|
rhythm-                           play x2
(lett ring first time, strum second time)
e|--------------------------------------|
B|--------------------------------------|
G|-7-----7------------------------------|
D|-7-5-7-7-5-7--------------------------|
A|-5-5-7-5-5-7--------------------------|
E|---3-5---3-5--------------------------|

verse:
both guitars                         play x2
e|--------------------------------------|
B|--------------------------------------|
G|-77777777-----------------------------|
D|-77777777-55555555-77777777-5555-7777-|
A|-55555555-55555555-77777777-5555-7777-|
E|----------33333333-55555555-3333-5555-|

prechorus:
rhythm-         play x2                        play x1
e|--------------------|------------------------------|
B|--------------------|------------------------------|
G|-----------77777777-|-----------7777-4444----------|
D|-5555-7777-77777777-|-5555-7777-7777-4444-5555-77\-|
A|-5555-7777-55555555-|-5555-7777-5555-2222-5555-77\-|
E|-3333-5555----------|-3333-5555-----------3333-55\-|
PM...................
lead-
e|--------------------------------------|
B|--------------------------------------|
G|-----------77-------------------------|
D|-55--------77-------------------------|
A|-55--------55-------------------------|
E|-33-----------------------------------|

chorus:
both guitars-
e|-------------------------------------------|
B|-------------------------------------------|
G|-7777----------------7777------------------|
D|-7777-7777-55555555--7777-7777-5-4-5-4-5-7-|
A|-5555-7777-55555555--5555-7777-5-4-5-4-5-7-|
E|------5555-33333333-------5555-3-2-3-2-3-5-|
both guitars cont.-
e|--------------------------------------|
B|--------------------------------------|
G|-7777---------------4444--------------|
D|-7777-7777-55555555-4444-5555---------|
A|-5555-7777-55555555-2222-5555---------|
E|------5555-33333333------3333---------|

Bridge:
lead-                              play x2
e|--------------------------------------|
B|--------------------------------------|
G|--------------------------------------|
D|-0-7-5-4-5-4-2-4----------------------|
A|--------------------------------------|
E|--------------------------------------|

Bridge ptII:
rhythm-
e|--------------------------------------|
B|--------------------------------------|
G|-77777777-44444444--------------------|
D|-77777777-44444444-4444/5555----------|
A|-55555555-22222222-4444/5555----------|
E|-------------------2222/3333----------|

last chorus:
both guitars-
(same as other chorus but just move each chord up 2 frets)
                              (play x2 and end on E)
e|-------------------------------------------|
B|-------------------------------------------|
G|-9999----------------9999------------------|
D|-9999-9999-77777777--9999-9999-7-6-7-6-7-9-|
A|-7777-9999-77777777--7777-9999-7-6-7-6-7-9-|
E|------7777-55555555-------7777-5-2-5-2-5-7-|
both guitars cont.-
e|--------------------------------------|
B|--------------------------------------|
G|-9999---------------6666--------------|
D|-9999-9999-77777777-6666-7777---------|
A|-7777-9999-77777777-3333-7777---------|
E|------7777-55555555------5555---------|

| /  slide up
| \  slide down
| h  hammer-on
| p  pull-off
| ~  vibrato
| +  harmonic
| x  Mute note

song order:
intro
verse
prechorus
chorus
intro
verse
prechorus
chorus
bridge
bridge ptII
chorus
chorus
End on D5

lyrics:
(Maybe I'll get through it)
Not much to lean on, I'll get through it
You know I do it to myself anyway
She's got my calls blocked and she's through with it
You know I do it to myself anyway

You know I think it might be time
To give myself a rise and shine
And I'll be happy and my couch is gonna miss me
And all the girls will wanna kiss me

Gotta get my shit together (Gotta get my shit together)
Cause this is dragging on and on
And I can't wait around forever (I can't wait around forever)
I'm starting to think she really might be gone (Yeah)

She's got a boyfriend, I'm looking through it
And I can't do it to myself anyway
And I won't slam her cause I blew it
You know I do it to myself anyway

And maybe she doesn't have the time
To deal with issues such as mine
And she'll be happy but I swear she's gonna miss me
Cause all the girls will wanna kiss me

Gotta get my shit together (Gotta get my shit together)
Cause this is dragging on and on
And I can't wait around forever (I can't wait around forever)
I'm starting to think she really might be gone

And I
Didn't want us to say
I didn't want us to say (Yeah)
And I
I'm better off this way
I'm better off this way without you anyway

Gotta get my shit together (It's dragging on)
Cause this is dragging on and on
And I can't wait around forever (She might be gone)
I'm starting to think she really might be gone

Gotta get my shit together (Gotta get my shit together)
I've gotta get my shit together (I can't wait around forever)
Gotta get my shit together (She might be gone)
Yea! Oh! C'mon! (Yeah that is BS)

============================================================================
Tap to rate this tab
# A B C D E F G H I J K L M N O P Q R S T U V W X Y Z