Song name
# A B C D E F G H I J K L M N O P Q R S T U V W X Y Z

Bowling For Soup - Bare Necessities tab

Help us improve GuitareTab! Take a short survey!
e----------------------------------------------------------------------------|
B-------1-5-3-5-3----------------------------10-8-6-5-3----------------------|
G---0-2-----------5-5-7-5-7-5-7-5-2-0-5-0-5-9-----------12-14-12-14-12-14-12-|
D----------------------------------------------------------------------------|
A----------------------------------------------------------------------------|
E----------------------------------------------------------------------------|


e---------------------------------------------------------------------------|
B-------------8-------------------------------------------------------------|
G--9-5-7-5-7-5--5-2-0-2-5-2-5-2-0-------------------------------------------|
D---------------------------------2-0---------------------------------------|
A-------------------------------------3-------------------------------------|
E---------------------------------------------------------------------------|


first tab so dont diss. peace xx
Related for Bare Necessities tab