Song name
# A B C D E F G H I J K L M N O P Q R S T U V W X Y Z

Bowling For Soup - Last Call Casualty tab

tabbed by luca piccirilli
Artist: bowling for soup
Album:a hangover you dont deserve
Song: last call casualty

Intro in 3 bits. Part I (this is my fav bit)

Play intros: I then II then III then II in that order

e|------------------------------------------------------------------|
b|------------------------------------------------------------------|
g|------------------------------------------------------------------|
d|-------18-18-18--14-14-14--16-16-16-------------------------------|
a|-------------------------------------14-14-14-12-12-14-14-14------|
E|------------------------------------------------------------------|

	Part II(note the suttle difference at the end, listen really hard)
e|-------------------------------------------------------------------|
b|-------------------------------------------------------------------|
g|-------------------------------------------------------------------|
d|-------18-18-18--14-14-14--16-16-16--------------------------------|
a|-------------------------------------14-14-14-12-12-11-------------|
E|-------------------------------------------------------------------|

	Part III again the end bit is different
e|------------------------------------------------------------------|
b|------------------------------------------------------------------|
g|------------------------------------------------------------------|
d|-------18-18-18--14-14-14--16-16-16-------------------------------|
a|-------------------------------------14-14-14-14-12-14------------|
E|------------------------------------------------------------------|

Verse	Part I
e|-------------------------------------------------------------------------|
b|-------------------------------------------------------------------------|
g|-------------------------------------------------------------------------|
d|-------------------------------------------------------------------------|
a|--2-(X 16)-----6-(X 16)--7-(X 8)----6-(X 8)----4-(X 8)----9-(X 8)--------|
E|--0------------4---------5----------4----------2----------7--------------|
   ....................................................................

     you... mute and play 2x

then muted with accents	Part II
e|-------------------------------------------------------------------------|
b|-------------------------------------------------------------------------|
g|-------------------------------------------------------------------------|
d|---------------------------------------------------------9/-11-13-14-----|
a|--2-(X 16)-----6-(X 16)--7-(X 8)----6-(X 8)----5--(X 8)--x--x--x--x------|
E|--0------------4---------5----------4----------3---------7/-9--11-12-----|
                                                          [speed up here]


Chorus

e|------------------------------------------------------------------------|
b|------------------------------------------------------------------------|
g|------------9----------6------------------------------------------------|
d|--7---------9-(X 16)---6-(X 16)---9-------------------------------------|
a|--7-(X 16)--7----------4----------9--(X 16)-----------------------------|
E|--5-------------------------------7-------------------------------------|

intro X2
verse part I X1 part II X3

	1 minute 48 secs so you can find it easily
e|------------------------------------------------------------------------|
b|------------------------------------------------------------------------|
g|---6-6--6-6--6----4------------------------2----------------------------|
d|---6-6--6-6--6----4-(same pattern as B4)---2--(same)----2---------------|
a|---4-4--4-4--4----2------------------------0------------2--(same)-------|
E|--------------------------------------------------------0---------------|
          .... (weird pattern)

    2 mins 2 secs
e|-------------------------------------------------------------------|
b|-------------------------------------------------------------------|
g|--4---66666666---44444444--77777777-----4~-------------------------|
d|--4---66666666---44444444--77777777-----4~-(let ring)--------------|
a|--2---44444444---22222222--55555555-----2~-------------------------|
E|-------------------------------------------------------------------|
        he said if he finds me....


e|---------------------------------------------------------------------------|
b|---------------------------------------------------------------------------|
g|--2------------6666666---2222222--4444444-4444444--------------------------|
d|--2---2~--1~---6666666---2222222--4444444-4444444--------------------------|
a|--0------------4444444---0000000--2222222-2222222--------------------------|
E|---------------------------------------------------------------------------|
    so if i get drunk and call you up........

outro
e|-----------------------------------------------------------------------|
b|-----------------------------------------------------------------------|
g|--2222222---55555555555555--66666666-----------------------------------|
d|--2222222---55555555555555--66666666--4444444-----9999999999999999-----|
a|--0000000---77777777777777--44444444--4444444-----9999999999999999-----|
E|--------------------------------------2222222-----7777777777777777-----|

outro = entire intro played over and over, until faded out
Tap to rate this tab
 
# A B C D E F G H I J K L M N O P Q R S T U V W X Y Z