Song name
# A B C D E F G H I J K L M N O P Q R S T U V W X Y Z

Bowling For Soup - Smoothie King tab

I believe this is the first tab for this song here...

SMOOTHIE KING - Bowling For Soup
"A HANGOVER YOU DON'T DESERVE"
Tuning:Standard (EADGBe)

Intro:
    D  A  B  G  
e|--------------|
B|--------------|
G|--7-----------|
D|--7--7--9--5--|
A|--5--7--9--5--|
E|-----5--7--3--|

Verse:
    D      C  D    D      C  G  
e|------------------------------|
B|------------------------------|
G|--7------5--7----7------5-----|
D|--7------5--7----7------5--5--|
A|--5------3--5----5------3--5--|
E|---------------------------3--|

Prechorus:
    F  C  F  A  
e|--------------|
B|--------------|
G|-----5--------|
D|--3--5--3--7--|
A|--3--3--3--7--|
E|--1-----1--5--|

Chorus:
    C  G  F  C  G  F  C  G  A  F  C  G  F  
e|-----------------------------------------|
B|-----------------------------------------|
G|--5--------5--------5-----------5--------|
D|--5--5--3--5--5--3--5--5--7--3--5--5--3--|
A|--3--5--3--3--5--3--3--5--7--3--3--5--3--|
E|-----3--1-----3--1-----3--5--1-----3--1--|

Interlude:
    C  G  A  F
e|--------------|
B|--------------|
G|--5-----------|
D|--5--5--7--3--|
A|--3--5--7--3--|
E|-----3--5--1--|

Bridge:
    A  G  F
e|-----------|
B|-----------|
G|-----------|
D|--7--5--3--|
A|--7--5--3--|
E|--5--3--1--|

Chorus 2/End Chorus:
    D  A  G  D  A  G  D  A  B  G  D  A  G  
e|-----------------------------------------|
B|-----------------------------------------|
G|--7--------7--------7-----------7--------|
D|--7--7--5--7--7--5--7--7--9--5--7--7--5--|
A|--5--7--5--5--7--5--5--7--9--5--5--7--5--|
E|-----5--3-----5--3-----5--7--3-----5--3--|

ENJOY 
Tap to rate this tab
 
# A B C D E F G H I J K L M N O P Q R S T U V W X Y Z