Song name
# A B C D E F G H I J K L M N O P Q R S T U V W X Y Z

Bowling For Soup - Self Centred tab

note that this is only the rhythm...

SELF-CENTRED - Bowling For Soup
"DRUNK ENOUGH TO DANCE"
Tuning:Standard (EADGBe)

Intro:
    D  A  E  G  A
e|-----------------|
B|-----------------|
G|--7--------------|
D|--7--7--2--5--7--|
A|--5--7--2--5--7--|
E|-----5--0--3--5--|

Verse:
    D  A  E  G  A
e|-----------------|
B|-----------------|
G|--7--------------|
D|--7--7--2--5--7--|
A|--5--7--2--5--7--|
E|-----5--0--3--5--|

Prechorus:
    G  A  D  G  A  D  A  B  A  G  A
e|-----------------------------------|
B|-----------------------------------|
G|--------7--------7-----------------|
D|--5--7--7--5--7--7--7--9--7--5--7--|
A|--5--7--5--5--7--5--7--9--7--5--7--|
E|--3--5-----3--5-----5--7--5--3--5--|
    *  *  *  *  *

Chorus:
    D  A  G  D  A  G  D  A  B  A  G  A
e|--------------------------------------|
B|--------------------------------------|
G|--7--------7--------7-----------------|
D|--7--7--5--7--7--5--7--7--9--7--5--7--|
A|--5--7--5--5--7--5--5--7--9--7--5--7--|
E|-----5--3-----5--3-----5--7--5--3--5--|

Bridge:
    D  A  E  G  A(x3)  D  A  F  G
e|------------------|--------------|
B|------------------|--------------|
G|--7---------------|--7-----------|
D|--7--7--2--5--7---|--7--7--3--5--|
A|--5--7--2--5--7---|--5--7--3--5--|
E|-----5--0--3--5---|-----5--1--3--|

End:
    G  A  G  A  D
e|-----------------|
B|-----------------|
G|--------------7--|
D|--5--7--5--7--7--|
A|--5--7--5--7--5--|
E|--3--5--3--5-----|
Tap to rate this tab
 
# A B C D E F G H I J K L M N O P Q R S T U V W X Y Z