Song name
# A B C D E F G H I J K L M N O P Q R S T U V W X Y Z

Bowling For Soup - Shes Got A Boyfriend tab

apparently i'm the first to tab this here...

SHE'S GOT A BOYFRIEND - Bowling For Soup
"DRUNK ENOUGH TO DANCE"
Tuning:Standard (EADGBe)

INTRO:
    A  D  B  D  E
e|-----------------|
B|-----------------|
G|-----7--4--7--9--|
D|--7--7--4--7--9--|
A|--7--5--2--5--7--|
E|--5--------------|

VERSE:
    A  D  B  D  E   A  D  B  D  E  A  D  B
e|----------------|-------------------------|
B|-----BASS-------|-------------------------|
G|----------------|----7--4--7--9-----7--4--|
D|----------------|-7--7--4--7--9--7--7--4--|
A|-----5--2--5----|-7--5--2--5--7--7--5--2--|
E|--5-----------0-|-5--------------5--------|

PRECHORUS/CHORUS:
    A  B  D  E
e|--------------|
B|--------------|
G|-----4--7--9--|
D|--7--4--7--9--|
A|--7--2--5--7--|
E|--5-----------|

BRIDGE:
    E  A  E  A  E     A  B  E
e|-----------------|-----------|
B|-----------------|-----------|
G|--9-----9-----9--|-----4--9--|
D|--9--7--9--7--9--|--7--4--9--|
A|--7--7--7--7--7--|--7--2--7--|
E|-----5-----5-----|--5--------|
Tap to rate this tab
 
# A B C D E F G H I J K L M N O P Q R S T U V W X Y Z