Song name
# A B C D E F G H I J K L M N O P Q R S T U V W X Y Z

Bowling For Soup - World Falling Apart tab

WORLD FALLING APART - Bowling For Soup
"DRUNK ENOUGH TO DANCE"
Tuning:Standard (EADGBe)

INTRO:
    B  C  E
e|-----------|
B|-----------|
G|--------9--|
D|--9--12-x--|
A|--x---x-7--|
E|--7--10----|

VERSE:
    A  D  A  D  E  A  D  E  D     A  E
e|-----------------------------|--------|
B|-----------------------------|--------|
G|-----7-----7--9-----7--9--7--|-----9--|
D|--7--7--7--7--9--7--7--9--7--|--7--9--|
A|--7--5--7--5--7--7--5--7--5--|--7--7--|
E|--5-----5--------5-----------|--5-----|

CHORUS:
    A  D  A (D  C# D  C# D) A  D  B  D
e|--------------------------------------|
B|--------------------------------------|
G|-----7----(7--6--7--6--7)----7-----7--|
D|--7--7--7-(7--6--7--6--7)-7--7--9--7--|
A|--7--5--7-(5--4--5--4--5)-7--5--9--5--|
E|--5-----5-----------------5-----7-----|

INTERLUDE:
    A  D  E
e|-----------|
B|-----------|
G|-----7--9--|
D|--7--7--9--|
A|--7--5--7--|
E|--5--------|

BRIDGE:
    D  E  A (G A G A) D  E  A  F# E
e|-----------------------------------|
B|-----------------------------------|
G|--7--9--------------7--9-----------|
D|--7--9--7-(5-7-5-7)-7--9--7--4--2--|
A|--5--7--7-(5-7-5-7)-5--7--7--4--2--|
E|--------5-(3-5-3-5)-------5--2--0--|

ENDING:
    B  E  B (E D# E D# E) B  E  C# E  B  C# E  B  C# A
e|------------------------------------------------------|
B|------------------------------------------------------|
G|-----9----(9-8--9-8--9)----9-----9--------9-----------|
D|--9--9--9-(9-8--9-8--9)-9--9--11-9--9--11-9--9--11-7--|
A|--9--7--9-(7-6--7-6--7)-9--7--11-7--9--11-7--9--11-7--|
E|--7-----7---------------7------9----7---9----7---9-5--|
Tap to rate this tab
# A B C D E F G H I J K L M N O P Q R S T U V W X Y Z