Guitaretab - guitar tabs
Song name
# A B C D E F G H I J K L M N O P Q R S T U V W X Y Z

Bowling For Soup - A Friendly Goodbye tab

Tuning: Guitar 1&2: Standard
There's really only a difference in the guitars in the intro/hook, the rest of the song 
play the same thing. This is my first time doing a tab so it might not look great but 
definitely accurate.

* = palm mute
/ = pickscrape

Intro (Guitar 1)
[---------------------------------------]
[---------------------------------------]
[--------9-7-7-77-9--------9-7-7-7-9----]
[-7-7-77-9-7-7-77-9-7-7-77-9-7-7-7-9----]
[-7-7-77-7-5-5-55-7-7-7-77-7-5-5-5-7----]
[-5-5-55------------5-5-55--------------][x2]

Intro (Guitar 2)
[---------------------------------------]
[---------------------------------------]
[-2-2-22---7-7-77---2-2-22---7-7-77-9---]
[-2-2-22-2-7-7-77-2-2-2-22-2-7-7-77-9---]
[-0-0-00-2-5-5-55-2-0-0-00-2-5-5-55-7---]
[--------0--------0--------0------------][x2]


Verse:

[-----------------------------------------------------------------]
[-----------------------------------------------------------------]
[-2-2-2-2-2-2-2-2-4-4-4-4-4-4-4-4-7-7-7-7-7-7-7-7-9-9-9-9-9-9-9-9-]
[-2-2-2-2-2-2-2-2-4-4-4-4-4-4-4-4-7-7-7-7-7-7-7-7-9-9-9-9-9-9-9-9-]
[-0-0-0-0-0-0-0-0-2-2-2-2-2-2-2-2-5-5-5-5-5-5-5-5-7-7-7-7-7-7-7-7-]
[-----------------------------------------------------------------]
  * * * * * * * * * * * * * * * * * * * * * * * * * * * * * * * *
[-----------------------------------------------------------------]
[-----------------------------------------------------------------]
[-2-2-2-2-2-2-2-2-4-4-4-4-4-4-4-4-7-7-7-7-7-7-7-7-9-9-9-9-9-9-9-9-]
[-2-2-2-2-2-2-2-2-4-4-4-4-4-4-4-4-7-7-7-7-7-7-7-7-9-9-9-9-9-9-9-9-]
[-0-0-0-0-0-0-0-0-2-2-2-2-2-2-2-2-5-5-5-5-5-5-5-5-7-7-7-7-7-7-7-7-]
[-----------------------------------------------------------------]
  * * * * * * * * * * * * * * * * * * * * * * * * * * * * * * * *
[ Tab from: http://www.guitaretab.com/b/bowling-for-soup/80490.html ]
[-----------------------------------------------------------------]
[-----------------------------------------------------------------]
[-7-7-7-7-7-7-7-7-9-9-9-9-9-9-9-9-----------------7-7-7-7-7-7-7-7-]
[-7-7-7-7-7-7-7-7-9-9-9-9-9-9-9-9-7-7-7-7-7-7-7-7-7-7-7-7-7-7-7-7-]
[-5-5-5-5-5-5-5-5-7-7-7-7-7-7-7-7-7-7-7-7-7-7-7-7-5-5-5-5-5-5-5-5-]
[---------------------------------5-5-5-5-5-5-5-5-----------------]
  * *   * *   * * * *   * *   * * * *   * *   * * * *   * *   * *
[-----------------------------------------------------------------]
[-----------------------------------------------------------------]
[-7-7-7-7-7-7-7-7-9-9-9-9-9-9-9-9-----------------7-7-7-7-7-7-7-7-]
[-7-7-7-7-7-7-7-7-9-9-9-9-9-9-9-9-7-7-7-7-7-7-7-7-7-7-7-7-7-7-7-7-]
[-5-5-5-5-5-5-5-5-7-7-7-7-7-7-7-7-7-7-7-7-7-7-7-7-5-5-5-5-5-5-5-5-]
[---------------------------------5-5-5-5-5-5-5-5-----------------]
  * *   * *   * * * *   * *   * * * *   * *   * * * *   * *   * *
[--------------]
[--------------]
[--9----9------]
[--9----9---/--]
[--7----7---/--]
[-----------/--]

Chorus:
[------------------------------------------------------------]
[------------------------------------------------------------]
[---------9-9-9-9-7-7-7-7-9-9-9-9---------9-9-9-9-7-7-7-7-9--]
[-7-7-7-7-9-9-9-9-7-7-7-7-9-9-9-9-7-7-7-7-9-9-9-9-7-7-7-7-9--]
[-7-7-7-7-7-7-7-7-5-5-5-5-7-7-7-7-7-7-7-7-7-7-7-7-5-5-5-5-7--]
[-5-5-5-5-------------------------5-5-5-5--------------------]

Intro

Verse

Chorus

Intro (x2)

Bridge:
[-----------------------------------------------------------]
[-----------------------------------------------------------]
[----------------4-4-4-4-4-4-4-4-7-7-7-7-7-7-7--------------]
[4-4-4-4-4-4-4-4-4-4-4-4-4-4-4-4-7-7-7-7-7-7-7-7-7-6--------]
[4-4-4-4-4-4-4-4-2-2-2-2-2-2-2-2-5-5-5-5-5-5-5-7-7-4--------]
[2-2-2-2-2-2-2-2-------------------------------5-5-4--------][x2]

[-----------------------------------------------------------------]
[-----------------------------------------------------------------]
[-4-4-4-4-4-4-4-4-9-9-9-9-9-9-9-9-----------------6-6-6-6-6-6-6-6-]
[-4-4-4-4-4-4-4-4-9-9-9-9-9-9-9-9-7-7-7-7-7-7-7-7-6-6-6-6-6-6-6-6-]
[-2-2-2-2-2-2-2-2-7-7-7-7-7-7-7-7-7-7-7-7-7-7-7-7-4-4-4-4-4-4-4-4-]
[---------------------------------5-5-5-5-5-5-5-5-----------------]

[---------------]
[---------------]
[--4----7---10--]
[--4----7---10--]
[--2----5----8--]
[---------------]

There also seems to be some high note action going on, but it's sorta inaudible. Not 
it won't be a huge loss, but I think it's something like this:

[---------------------------]
[---14-12---14-12---14-12---]
[-14------14-----14---------]
[---------------------------]
[---------------------------]
[---------------------------][x2]

Chorus

Intro

Outro (listen for rhythm)
[---------------------]
[---------------------]
[----9-7-9---9-7-7-9--]
[--7-9-7-9-7-9-7-7-9--]
[--7-7-5-7-7-7-5-5-7--]
[--5-------5----------]

And that should do it! Let me know if I should keep doing these or just stick to playing.
Related for A Friendly Goodbye tab
A Friendly Goodbye chords by Bowling For Soup