Song name
# A B C D E F G H I J K L M N O P Q R S T U V W X Y Z

Bowling For Soup - 99 Biker Friends tab

Bowling for Soup - 99 Biker Friends
Tabbed by:Gabe Hawkins - gabe_hawkins93@yahoo.com
Tuning:Standard (EADGBe)
Guitarist(s):Jaret Reddick;Chris Burney
Album:The Great Burrito Extortion Case
Notes:  I noticed there weren't any fully correct tabs for this song, I figured I'd make
 I'm pretty sure this is correct, but any corrections/suggestions are welcomed :)
song, easy, and fun to play.  Feel free to email me with questions and/or comments.

                                  Key:
                             x     -   Mute Strings Slightly
                             X     -   Mute Strings Heavily
                            P.M.   -   Palm Mute
                             /     -   Slide
                             ~     -   Let Note/Chord Ring
                            rest   -   Short Break in Playing

Intro:
(Guitar 1)
e|-----------------------------------------------|
B|-----------------------------------------------|
G|-------7-777-7-7-2-222-2-2-----------2-222-2-2-|
D|-x-----7-777-7-7-2-222-2-2-5-555-5-5-2-222-2-2-|
A|-x-----5-555-5-5-0-000-0-0-5-555-5-5-0-000-0-0-|
E|-x-12/---------------------3-333-3-3-----------|x1
P.M.       ...       ...       ...       ...

(Guitar 2)
e|--------------------------------------------------|
B|--------------------------------------------------|
G|-------7-777-7-7/---------------------------------|
D|-x-----7-777-7-7/-7-777-7-7/-5-555-5-5/-7-777-7-7-|
A|-x-----5-555-5-5/-7-777-7-7/-5-555-5-5/-7-777-7-7-|
E|-x-12/------------5-555-5-5/-3-333-3-3/-5-555-5-5-|x1
P.M.       ...        ...        ...        ...

Verse 1:
(Guitar 1)
e|----------------------------------|
B|----------------------------------|
G|-7-777777-2222222---------2222222-|
D|-7-777777-2222222-5555555-2222222-|
A|-5-555555-0000000-5555555-0000000-|
E|------------------3333333---------|x2
P.M. ...... ....... ....... .......

(Guitar 2)
e|-----------------------------------|
B|-----------------------------------|
G|-7-7777777-------------------------|
D|-7-7777777-7777777-5555555-7777777-|
A|-5-5555555-7777777-5555555-7777777-|
E|-----------5555555-3333333-5555555-|x2
P.M. ....... ....... ....... .......

Bridge 1:
(Guitar 1)
e|-----------------------------------------|
B|-----------------------------------------|
G|-7-777-7-7-2-222-2-2-----------2-222-2-2-|
D|-7-777-7-7-2-222-2-2-5-555-5-5-2-222-2-2-|
A|-5-555-5-5-0-000-0-0-5-555-5-5-0-000-0-0-|
E|---------------------3-333-3-3-----------|x1
P.M. ...       ...       ...       ...

(Guitar 2)
e|--------------------------------------------|
B|--------------------------------------------|
G|-7-777-7-7/---------------------------------|
D|-7-777-7-7/-7-777-7-7/-5-555-5-5/-7-777-7-7-|
A|-5-555-5-5/-7-777-7-7/-5-555-5-5/-7-777-7-7-|
E|------------5-555-5-5/-3-333-3-3/-5-555-5-5-|x1
P.M. ...        ...        ...        ...

(Guitars 1 and 2)
e|--------------------------|
B|--------------------------|
G|--------------------------|
D|-5-55-555-5-7-77-77--rest-|
A|-5-55-555-5-7-77-77--rest-|
E|-3-33-333-3-5-55-55--rest-|x1

Chorus 1:
(Guitar 1)
e|----------------------------------|
B|----------------------------------|
G|-7777777-2222222----------2222222-|
D|-7777777-2222222-55555555-2222222-|
A|-5555555-0000000-55555555-0000000-|
E|-----------------33333333---------|x2

(Guitar 2)
e|---------------------------------|
B|---------------------------------|
G|-7777777-------------------------|
D|-7777777-7777777-5555555-7777777-|
A|-5555555-7777777-5555555-7777777-|
E|---------5555555-3333333-5555555-|x2

(Guitars 1 and 2)
e|------------------------------------------------|
B|------------------------------------------------|
G|-----------------4444444---------7777777---rest-|
D|-5555555-7777777-4444444-5555555-7777777-7-rest-|
A|-5555555-7777777-2222222-5555555-5555555-7-rest-|
E|-3333333-5555555---------3333333---------5-rest-|x1

Post-Chorus 1:
(Guitar 1)
e|-----------------------------------------|
B|-----------------------------------------|
G|-7-777-7-7-2-222-2-2-----------2-222-2-2-|
D|-7-777-7-7-2-222-2-2-5-555-5-5-2-222-2-2-|
A|-5-555-5-5-0-000-0-0-5-555-5-5-0-000-0-0-|
E|---------------------3-333-3-3-----------|x1
P.M. ...       ...       ...       ...

(Guitar 2)
e|--------------------------------------------|
B|--------------------------------------------|
G|-7-777-7-7/---------------------------------|
D|-7-777-7-7/-7-777-7-7/-5-555-5-5/-7-777-7-7-|
A|-5-555-5-5/-7-777-7-7/-5-555-5-5/-7-777-7-7-|
E|------------5-555-5-5/-3-333-3-3/-5-555-5-5-|x1
P.M. ...        ...        ...        ...

Verse 2:
(Guitar 1)
e|----------------------------------|
B|----------------------------------|
G|-7-777777-2222222---------2222222-|
D|-7-777777-2222222-5555555-2222222-|
A|-5-555555-0000000-5555555-0000000-|
E|------------------3333333---------|x2
P.M. ...... ....... ....... .......

(Guitar 2)
e|-----------------------------------|
B|-----------------------------------|
G|-7-7777777-------------------------|
D|-7-7777777-7777777-5555555-7777777-|
A|-5-5555555-7777777-5555555-7777777-|
E|-----------5555555-3333333-5555555-|x2
P.M. ....... ....... ....... .......

Bridge 2:
(Guitar 1)
e|-----------------------------------------|
B|-----------------------------------------|
G|-7-777-7-7-2-222-2-2-----------2-222-2-2-|
D|-7-777-7-7-2-222-2-2-5-555-5-5-2-222-2-2-|
A|-5-555-5-5-0-000-0-0-5-555-5-5-0-000-0-0-|
E|---------------------3-333-3-3-----------|x1
P.M. ...       ...       ...       ...

(Guitar 2)
e|--------------------------------------------|
B|--------------------------------------------|
G|-7-777-7-7/---------------------------------|
D|-7-777-7-7/-7-777-7-7/-5-555-5-5/-7-777-7-7-|
A|-5-555-5-5/-7-777-7-7/-5-555-5-5/-7-777-7-7-|
E|------------5-555-5-5/-3-333-3-3/-5-555-5-5-|x1
P.M. ...        ...        ...        ...

(Guitars 1 and 2)
e|------------------------|
B|------------------------|
G|------------------------|
D|-5-55-555-5-7-77-77-X-X-|
A|-5-55-555-5-7-77-77-X-X-|
E|-3-33-333-3-5-55-55-X-X-|x1

Chorus 2:
(Guitar 1)
e|----------------------------------|
B|----------------------------------|
G|-7777777-2222222----------2222222-|
D|-7777777-2222222-55555555-2222222-|
A|-5555555-0000000-55555555-0000000-|
E|-----------------33333333---------|x2

(Guitar 2)
e|---------------------------------|
B|---------------------------------|
G|-7777777-------------------------|
D|-7777777-7777777-5555555-7777777-|
A|-5555555-7777777-5555555-7777777-|
E|---------5555555-3333333-5555555-|x2

(Guitars 1 and 2)
e|---------------------------------------------|
B|---------------------------------------------|
G|-----------------4444444---------7777777-----|
D|-5555555-7777777-4444444-5555555-7777777-7-7-|
A|-5555555-7777777-2222222-5555555-5555555-7-7-|
E|-3333333-5555555---------3333333---------5-5-|x1

Post-Chorus 2:
(Guitars 1 and 2)
e|--------------------------------|---|-----------------|
B|--------------------------------|---|-----------------|
G|-4444444-2222222----------------|---|-4444444-2222222-|
D|-4444444-2222222-55555555555555-|---|-4444444-2222222-|
A|-2222222-0000000-55555555555555-|---|-2222222-0000000-|
E|-----------------33333333333333-|---|-----------------|x1
                                   x1
(Guitars 1 and 2)
e|---------------------------------------------------------|
B|---------------------------------------------------------|
G|---------------------------------------------------------|
D|-55555555555555-77777777777777-5555555-7777777-999999-5~-|
A|-55555555555555-77777777777777-5555555-7777777-999999-5~-|
E|-33333333333333-55555555555555-3333333-5555555-777777-3~-|
P.M.............. .............. ....... ....... ......

Chorus 3:(DIFFERENT, DONT PASS UP)
(Guitar 1)
e|----------------------------------|
B|----------------------------------|
G|-7777777-2222222----------2222222-|
D|-7777777-2222222-55555555-2222222-|
A|-5555555-0000000-55555555-0000000-|
E|-----------------33333333---------|x3

(Guitar 2)
e|---------------------------------|
B|---------------------------------|
G|-7777777-------------------------|
D|-7777777-7777777-5555555-7777777-|
A|-5555555-7777777-5555555-7777777-|
E|---------5555555-3333333-5555555-|x3

(Guitars 1 and 2)
e|-------------------------------------------|
B|-------------------------------------------|
G|-----------------4444444---------7777777---|
D|-5555555-7777777-4444444-5555555-7777777-7-|
A|-5555555-7777777-2222222-5555555-5555555-7-|
E|-3333333-5555555---------3333333---------5-|x1

Post-Chorus 3:
(Guitar 1)
e|-----------------------------------------|
B|-----------------------------------------|
G|-7-777-7-7-2-222-2-2-----------2-222-2-2-|
D|-7-777-7-7-2-222-2-2-5-555-5-5-2-222-2-2-|
A|-5-555-5-5-0-000-0-0-5-555-5-5-0-000-0-0-|
E|---------------------3-333-3-3-----------|x2
P.M. ...       ...       ...       ...

(Guitar 2)
e|--------------------------------------------|
B|--------------------------------------------|
G|-7-777-7-7/---------------------------------|
D|-7-777-7-7/-7-777-7-7/-5-555-5-5/-7-777-7-7-|
A|-5-555-5-5/-7-777-7-7/-5-555-5-5/-7-777-7-7-|
E|------------5-555-5-5/-3-333-3-3/-5-555-5-5-|x2
P.M. ...        ...        ...        ...

End On:
(Guitars 1 and 2)
e|----|
B|----|
G|-7~-|
D|-7~-|
A|-5~-|
E|----|x1
Tap to rate this tab
 
# A B C D E F G H I J K L M N O P Q R S T U V W X Y Z