Song name
# A B C D E F G H I J K L M N O P Q R S T U V W X Y Z

Bowling For Soup - Im Gay tab

----------------------------------------------------------------------------
			     Im Gay- Bowling for Soup
----------------------------------------------------------------------------
Tabbed by: doom96
Email: bewareofthefrankenwolf@hotmail.com

Tuning:standard (ebgdae)

Intro

This fucking song....

e|--------------------------------------------------------------------------|
B|--------------------------------------------------------------------------|
G|--------------------------------------------------------------------------|
D|-4-4-4-4-4-4-4-4-4-----------------6-6-6-6-6-6-6-6-6----------------------|
A|-2-2-2-2-2-2-2-2-2-4-4-4-4-4-4-4-4-4-4-4-4-4-4-4-4-4-2-2-2-2-2-2-2-2-2----|
E|-------------------2-2-2-2-2-2-2-2-------------------0-0-0-0-0-0-0-0-0----|

Then comes guitar two with.. (i dont think this is perfect =S )
(riff 1)
e|--------------------------------------------------------------------------|
B|-4-5-7-5-4-5-7-9-7-2--4-5-7-5-4-2-0---------------------------------------|
G|------------------------------------2-0-----------------------------------|
D|----------------------------------------0---------------------------------|
A|--------------------------------------------------------------------------|
E|--------------------------------------------------------------------------|
(riff 2)
e|--------------------------------------------------------------------------|
B|-4-5-7-0-4h5-4h5-4-2--4-5-7-0-4h5-4h5-4h5-5/7---x2------------------------|
G|--------------------------------------------------------------------------|
D|--------------------------------------------------------------------------|
A|--------------------------------------------------------------------------|
E|--------------------------------------------------------------------------|

well we've all heard about....
(verse)
e|--------------------------------------------------------------------------|
B|--------------------------------------------------------------------------|
G|----------------------------------------------------------------------x3--|
D|-4-4-4-4-4-4-4-4-4--------------------------------------------------------|
A|-2-2-2-2-2-2-2-2-4-4-4-4-4-4-4-4-2-2-2-2-2-2-2-2-2-2-2-2-2-2-2-2-2-2------|
E|-------------------2-2-2-2-2-2-2-0-0-0-0-0-0-0-0-0-0-0-0-0-0-0-0-0-0------|

It sells records when you sad these days...
(pre chorus)
e|--------------------------------------------------------------------------|
B|--------------------------------------------------------------------------|
G|--------------------------------------------------------------------------|
D|-4-4-4-4-4-4-4-------------4-4-4-4-4-4------------------4-----------------|
A|-2-2-2-2-2-2-2-2-2-2-2-2-2-2-2-2-2-2-2-2-2-2-2-2-2-2----2----4---2--------|
E|-------------0-0-0-0-0-0-0-------------0-0-0-0-0-0-0---------2---0--------|

Play nothing during sings 'dont hate us cos we're.' Come in on the 'happy'
(chorus)
e|--------------------------------------------------------------------------|
B|--------------------------------------------------------------------------|
G|----------------------------------------------------------------------x2--|
D|-4-4-4-4-4-4-4-4-4--------------------------------------------------------|
A|-2-2-2-2-2-2-2-2-4-4-4-4-4-4-4-4-2-2-2-2-2-2-2-2-2-2-2-2-2-2-2-2-2-2------|
E|-------------------2-2-2-2-2-2-2-0-0-0-0-0-0-0-0-0-0-0-0-0-0-0-0-0-0------|

the bass plays for 'it's perfecly fine to be a happy individual'

G|--------------------------------------------------------------------------|
D|--------------------------------------------------------------------------|
A|-2-2-2-2-2-2-2-2-2--------------------------------------------------------|
E|-------------------2-2-2-2-2-2-2-2-0-0-0-0-0-0-0-0------------------------|
(repeat until this section is over)

Thats right ladies and gentle man....
(bridge) play twice, first time quite slow, than speed it up for the secong time. you'll 
the idea when you listen to the track
e|--------------------------------------------------------------------------|
B|--------------------------------------------------------------------------|
G|--------------------------------------------------------------------------|
D|-4-4-4-4-4-4-4-4----------------------------------------------------------|
A|-2-2-2-2-2-2-2-2-4-4-4-4-4-4-4-4-2-2-2-2-2-2-2-2-2-2-2-2-2-2-2-2-2--------|
E|-----------------2-2-2-2-2-2-2-2-0-0-0-0-0-0-0-0-0-0-0-0-0-0-0-0-0--------|

For the La La's play...
(outro)play quite slow- again listen to the track.
e|--------------------------------------------------------------------------|
B|--------------------------------------------------------------------------|
G|--------------------------------------------------------------------------|
D|-4-4-4-4-4-4-4-4----------------------------------------------------------|
A|-2-2-2-2-2-2-2-2-4-4-4-4-4-4-4-4-2-2-2-2-2-2-2-2-2-2-2-2-2-2-2-2-2--------|
E|-----------------2-2-2-2-2-2-2-2-0-0-0-0-0-0-0-0-0-0-0-0-0-0-0-0-0--------|

Order Of Song:
Intro
riff 1
riff 2
verse
pre chorus
chorus
riff 2
verse
Bass solo
chorus
bridge
pre chorus
outro

| /  slide up
| \  slide down
| h  hammer-on
| p  pull-off
| ~  vibrato
| +  harmonic
| x  Mute note
============================================================================
Tap to rate this tab
# A B C D E F G H I J K L M N O P Q R S T U V W X Y Z