Song name
# A B C D E F G H I J K L M N O P Q R S T U V W X Y Z

Bowling For Soup - Why Dont I Miss You tab

love this song. different from all other BFS's songs

intro (rhythm)
|---------|---------|--------|
|---------|---------|--------|
|-4-----9-|-4-----9-|-6-6----|
|-4-4-6-9-|-4-4-6-9-|-6-6-2~-|
|-2-4-6-7-|-2-4-6-7-|-4-4-2~-|
|---2-4---|---2-4---|-----0~-|

intro (solo) [not 100% correct]
|-7-7-2-2-9-9-11-11--|-12-12-11-11-7--|
|--5-5-0-0-7-7--9--9-|---9--9--9--9---|
|--------------------|----------------|
|--------------------|----------------|
|--------------------|----------------|
|--------------------|----------------|

verse (acoustic)
|----------|
|----------|
|-4---6----|
|-4-2-6-4--|
|-2-2-4-4--|
|---0---2--|

pre-chorus (2nd verse)
|------------|
|---------8~-|
|-----6-9-9~-|
|-6-4-6-9-9~-|
|-6-4-4-7-7~-|
|-4-2--------|

chorus
|-------------------|
|-------------------|
|-4-----9-6-9-11-9--|
|-4-4-6-9-6-9-11-9--|
|-2-4-6-7-4-7-9--7--|
|---2-4-------------|

post-chorus
|------|----------|
|------|----------|
|-4----|-4--------|
|-4-2--|-4-4-6-2--|
|-2-2--|-2-4-6-2--|
|---0--|---2-4-0--|
  [1st]   [2nd]   verse

bridge
|-----------------------------------------|
|--------------------------------8~-------|
|---------4------------6-x-6-x-9-9~-------|
|-5-7-5-7-4-4-6-2------6-x-6-x-9-9~-[2x]--|
|-5-7-5-7-2-4-6-2-[2x]-4-x-4-x-7-7~-------|
|-3-5-3-5---2-4-0-------------------------|

outro
|----------|
|----------|
|-4--------|
|-4-4-6-2--|
|-2-4-6-2--|
|---2-4-0--|
Tap to rate this tab
 
# A B C D E F G H I J K L M N O P Q R S T U V W X Y Z