Song name
# A B C D E F G H I J K L M N O P Q R S T U V W X Y Z

Bowling For Soup - When We Die tab

-------------------------------------------------------------------------------------------------
When We Die - Bowling for Soup
-------------------------------------------------------------------------------------------------
Transcribed by: Michelle Osborne
e-mail: shellynjco@yahoo.com
Tuning: Standard

Intro:

E ---2------3------2------0------|
B -------3------3------3------3--|
G -------------------------------|
D -------------------------------|
A -------------------------------|
E -------------------------------|
             Repeat 7X

Verse:

E ---------------------------------------------------------------------------|
B --7---7---7--7--------------------4---4---4--4-----------------------------|
G --7---7---7--7--------------------4---4---4--4-----------------------------|
D --5---5---5--5---7---7---7--7-----2---2---2--2---5---5---5--5--------------|
A -----------------7---7---7--7--------------------5---5---5--5--------------|
E -----------------5---5---5--5--------------------3---3---3--3--------------|
"I know that it's early..."

Pre-chorus:

E ----------------------------------------------------------------------------------------------|
B ----------------------------------------------------------------------------------------------|
G ----------------------------------------------------------------------------2-2-2-2-2-2-2-2---|
D --5-5-5-5-5-5-5-5-5---5-5-5-5-5-5-5-5---2-2-2-2-2-2-2-2---2-2-2-2-2-2-2-2---2-2-2-2-2-2-2-2---|
A --5-5-5-5-5-5-5-5-5---5-5-5-5-5-5-5-5---2-2-2-2-2-2-2-2---0-0-0-0-0-0-0-0---0-0-0-0-0-0-0-0---|
E --3-3-3-3-3-3-3-3-3---2-2-2-2-2-2-2-2---0-0-0-0-0-0-0-0---------------------------------------|
"'Cause nothing's worth losing..."

Chorus:

E --------------------------------------------------------------------------|
B --------------------------------------------------------------------------|
G ---7-7-7------------------------7-7-7----------4-4--------4-4-4---2-2-2---|
D ---7-7-7--7-7-7---5-5-5-5-5-5---7-7-7---7-7-7--4-4--5-5---4-4-4---2-2-2---|
A ---5-5-5--7-7-7---5-5-5-5-5-5---5-5-5---7-7-7--2-2--5-5---2-2-2---0-0-0---|
E ----------5-5-5---3-3-3-3-3-3-----------5-5-5-------3-3-------------------|
"And I know that we're gonna be fine..."

E ---------------------------------------|
B ---------------------------------------|
G --7-7-7------------------------7-------|
D --7-7-7--5-5---5-5-5---7-7-7---7-------|
A --5-5-5--5-5---5-5-5---7-7-7---5-------|
E ---------3-3---5-5-5---5-5-5-----------|

Bridge:

E --------------------------------------|
B --------------------------------------|
G ---4-4---------7-7-7-7----------------|
D ---4-4---5-5---7-7-7-7---7-7-7-7------|
A ---2-2---5-5---5-5-5-5---7-7-7-7------|
E ---------3-3-------------5-5-5-5------|
"Come over, come over..."
Tap to rate this tab
 
# A B C D E F G H I J K L M N O P Q R S T U V W X Y Z