Song name
# A B C D E F G H I J K L M N O P Q R S T U V W X Y Z

Bowling For Soup - Dont Let It Be Love tab

-----------------------------------------------------------------
Don't Let It Be Love - Bowling For Soup
-----------------------------------------------------------------
Tabbed by: Bair
Email: bair_morritt@hotmail.com
Tuning: Standard

Intro:
e|---------------------------------------------------------------|
B|---------------------------------------------------------------|
G|-555555555555555555555555555555555-----------------------------|
D|-555555555555555555555555555555555-----------------------------|
A|-333333333333333333333333333333333-----------------------------|
E|---------------------------------------------------------------|

Verse:
e|---------------------------------------------------------------|
B|---------------------------------------------------------------|
G|--5-5-5--5-5-5--7-7-7------------------------------------------|
D|--5-5-5--5-5-5--7-7-7--55555555--------------------------------|
A|--3-3-3--2-2-2--5-5-5--55555555--------------------------------|
E|-----------------------33333333--------------------------------|
"I was out on the front line...."

Pre-Chorus:
e|---------------------------------------------------------------|
B|---------------------------------------------------------------|
G|--------5------------------------------------------------------|
D|--3--2--5--5--333333333--22222222--55555555--------------------|
A|--3--2--3--5--333333333--22222222--55555555--------------------|
E|--1--0-----3--111111111--00000000--33333333--------------------|
"Head over heals cause i know...."

Chorus:
e|---------------------------------------------------------------|
B|---------------------------------------------------------------|
G|--5-5-5---------7-7-7------------------------------------------|
D|--5-5-5--5-5-5--7-7-7--55555555--------------------------------|
A|--3-3-3--5-5-5--5-5-5--55555555--------------------------------|
E|---------3-3-3---------33333333--------------------------------|
"Dont, dont, dont let it be love...."

Post Chorus:
e|---------------------------------------------------------------|
B|---------------------------------------------------------------|
G|-5--9--10--12--------------------------------------------------|
D|-5--9--10--12--------------------------------------------------|
A|-3--7--9---10--------------------------------------------------|
E|---------------------------------------------------------------|
Tap to rate this tab
# A B C D E F G H I J K L M N O P Q R S T U V W X Y Z