Song name
# A B C D E F G H I J K L M N O P Q R S T U V W X Y Z

Bowling For Soup - Much More Beautiful Person tab

please listen carefully to the song to figure out each part.

intro
|------------------|
|------------------|
|-7-7-3-3-----5-5--|
|-7-7-3-3-3-3-5-5--|
|-5-5-1-1-3-3-3-3--|
|---------1-1------|

intro (2nd)
|----------------------|
|----------------------|
|-7-7-3-3-10-10-12-12--|
|-x-x-x-x-x--x--x--x---|
|-5-5-1-1-8--8--10-10--|
|----------------------|

verse (p.m)
|-------------------------|
|-------------------------|
|-7-7-7-7-5-5-5-5-3-3-5-5-|
|-7-7-7-7-5-5-5-5-3-3-5-5-|
|-5-5-5-5-3-3-3-3-1-1-3-3-|
|-------------------------|

pre-chorus
|---------------------------------|
|---------------------------------|
|-3-3-3-3-7-7-7-7-3-3-3-3-5-5-5-5-|
|-3-3-3-3-7-7-7-7-3-3-3-3-5-5-5-5-|
|-1-1-1-1-5-5-5-5-1-1-1-1-3-3-3-3-|
|---------------------------------|

chorus (each 2x)
|---------|---------|---------|
|---------|---------|---------|
|-----5-5-|-7-7-----|-----5-5-|
|-3-3-5-5-|-7-7-8-8-|-5-5-5-5-|
|-3-3-3-3-|-5-5-8-8-|-5-5-3-3-|
|-1-1-----|-----6-6-|-3-3-----|

bridge
|-----------------------|---------------------|
|-----------------------|---------------------|
|-3-3-----5-5-7--5--3-3-|-3-3-----5-5-7-7-7-7-|
|-3-3-3-3-5-5-7--5--3-3-|-3-3-3-3-5-5-7-7-7-7-|
|-1-1-3-3-3-3-5--3--1-1-|-1-1-3-3-3-3-5-5-5-5-|
|-----1-1---------------|-----1-1-------------|

by: azz
email: azwan082@yahoo.com
Tap to rate this tab
# A B C D E F G H I J K L M N O P Q R S T U V W X Y Z