Song name
# A B C D E F G H I J K L M N O P Q R S T U V W X Y Z

Bowling For Soup - No Opinion Acoustic tab

-------------------------------------------------------------------------------
		     NO OPINION (ACOUSTIC) - Bowling For Soup
-------------------------------------------------------------------------------
Tabbed by: dumpweed41
Email: welladjusted.mxpx@gmail.com

Tuning: EADGBE

Introduction
Guitar 1
e|-2-2-x-x-3-3-x-x-2-2-x-x-0-0-x-x-2-2-x-x-3-3-x-x-2-2-x-x-0-0---------------|
B|-3-3-x-x-3-3-x-x-3-3-x-x-2-2-x-x-3-3-x-x-3-3-x-x-3-3-x-x-2-2---------------|
G|-4-4-x-x-0-0-x-x-2-2-x-x-2-2-x-x-4-4-x-x-0-0-x-x-2-2-x-x-2-2---------------|
D|-4-4-x-x-0-0-x-x-0-0-x-x-2-2-x-x-4-4-x-x-0-0-x-x-0-0-x-x-2-2---------------| X2
A|-2-2-x-x-2-2-x-x-----x-x-0-0-x-x-2-2-x-x-2-2-x-x-----x-x-0-0---------------|
E|-----x-x-3-3-x-x-----x-x-----x-x-----x-x-3-3-x-x-----x-x-------------------|

Guitar 2
e|---------------------------------------------------------------------------|
B|---------------------------------------------------------------------------|
G|---------------------------------------------------------------------------|
D|---------------------------------------------------------------------------| 
A|---------------------------------------------------------------------------|
E|---------------------------------------------------------------------------|

e|---------------------------------------------------------------------------|
B|-----12-12-12-10-10-8-8-7-7-7-7-x-5-5--------------------------------------|
G|-----x--x--x--x--x--x-x-x-x-x-x-x-x-x--------------------------------------|
D|-----9--9--9--7--7--5-5-4-4-4-4-x-2-2--------------------------------------| x2
A|---------------------------------------------------------------------------|
E|---------------------------------------------------------------------------|

Verse 1
e|-2-2-------------3-3-------------2-2-------------0-0-----1-1---------------|
B|-3-3-------------3-3-------------3-3-------------2-2-----1-1---------------|
G|-4-4-------------0-0-------------2-2-------------2-2-----3-3---------------|
D|-4-4-------------0-0-------------0-0-------------2-2-----3-3---------------| x2
A|-2-2-------------2-2-----------------------------0-0-----1-1---------------|
E|-----------------3-3-------------------------------------------------------|

e|-3-------------------------------------------------------------------------|
B|-3-------------------------------------------------------------------------|
G|-0-------------------------------------------------------------------------|
D|-0-------------------------------------------------------------------------|
A|-2-------------------------------------------------------------------------|
E|-3-------------------------------------------------------------------------|

Chorus
e|-22222222-22222222-00000000-3333-0000--------------------------------------|
B|-33333333-33333333-00000000-3333-2222--------------------------------------|
G|-44444444-22222222-00000000-0000-2222--------------------------------------|
D|-44444444-00000000-22222222-0000-2222--------------------------------------| x2 
A|-22222222----------22222222-2222-0000--------------------------------------|
E|-------------------00000000-3333-------------------------------------------|

e|-3333333333333333-2222222222222222-----------------------------------------|
B|-3333333333333333-3333333333333333-----------------------------------------|
G|-0000000000000000-2222222222222222-----------------------------------------|
D|-0000000000000000-0000000000000000-----------------------------------------|
A|-2222222222222222----------------------------------------------------------|
E|-3333333333333333----------------------------------------------------------|
pm ................ ................ 

e|-0000000000000000-000000000------------------------------------------------|
B|-0000000000000000-222222222------------------------------------------------|
G|-0000000000000000-222222222------------------------------------------------|
D|-2222222222222222-222222222------------------------------------------------|
A|-2222222222222222-000000000------------------------------------------------|
E|-0000000000000000----------------------------------------------------------|



Interlude
Guitar 1
e|-2-2-x-x-3-3-x-x-2-2-x-x-0-0-x-x-2-2-x-x-3-3-x-x-2-2-x-x-0-0---------------|
B|-3-3-x-x-3-3-x-x-3-3-x-x-2-2-x-x-3-3-x-x-3-3-x-x-3-3-x-x-2-2---------------|
G|-4-4-x-x-0-0-x-x-2-2-x-x-2-2-x-x-4-4-x-x-0-0-x-x-2-2-x-x-2-2---------------|
D|-4-4-x-x-0-0-x-x-0-0-x-x-2-2-x-x-4-4-x-x-0-0-x-x-0-0-x-x-2-2---------------| 
A|-2-2-x-x-2-2-x-x-----x-x-0-0-x-x-2-2-x-x-2-2-x-x-----x-x-0-0---------------|
E|-----x-x-3-3-x-x-----x-x-----x-x-----x-x-3-3-x-x-----x-x-------------------|

Guitar 2
e|---------------------------------------------------------------------------|
B|-----12-12-12-10-10-8-8-7-7-7-7-x-5-5--------------------------------------|
G|-----x--x--x--x--x--x-x-x-x-x-x-x-x-x--------------------------------------|
D|-----9--9--9--7--7--5-5-4-4-4-4-x-2-2--------------------------------------| x2
A|---------------------------------------------------------------------------|
E|---------------------------------------------------------------------------|

Verse 2
e|-2-2-------------3-3-------------2-2-------------0-0-----1-1---------------|
B|-3-3-------------3-3-------------3-3-------------2-2-----1-1---------------|
G|-4-4-------------0-0-------------2-2-------------2-2-----3-3---------------|
D|-4-4-------------0-0-------------0-0-------------2-2-----3-3---------------| 
A|-2-2-------------2-2-----------------------------0-0-----1-1---------------|
E|-----------------3-3-------------------------------------------------------|

e|-2-2-x-x-x-x-x-x-3-3-x-x-x-x-x-x-2-2-x-x-x-x-x-x-0-0-x-x-1-1-x-x----3-------|
B|-3-3-x-x-x-x-x-x-3-3-x-x-x-x-x-x-3-3-x-x-x-x-x-x-2-2-x-x-1-1-x-x----3-------|
G|-4-4-x-x-x-x-x-x-0-0-x-x-x-x-x-x-2-2-x-x-x-x-x-x-2-2-x-x-3-3-x-x----0-------|
D|-4-4-x-x-x-x-x-x-0-0-x-x-x-x-x-x-0-0-x-x-x-x-x-x-2-2-x-x-3-3-x-x----0-------|
A|-2-2-x-x-x-x-x-x-2-2-x-x-x-x-x-x-----x-x-x-x-x-x-0-0-x-x-1-1-x-x----2-------|
E|-----x-x-x-x-x-x-3-3-x-x-x-x-x-x-----x-x-x-x-x-x-----x-x-----x-x----3-------|

Chorus
e|-22222222-22222222-00000000-3333-0000--------------------------------------|
B|-33333333-33333333-00000000-3333-2222--------------------------------------|
G|-44444444-22222222-00000000-0000-2222--------------------------------------|
D|-44444444-00000000-22222222-0000-2222--------------------------------------| x2 
A|-22222222----------22222222-2222-0000--------------------------------------|
E|-------------------00000000-3333-------------------------------------------|

e|-3333333333333333-2222222222222222-3333333333333333------------------------|
B|-3333333333333333-3333333333333333-3333333333333333------------------------|
G|-0000000000000000-2222222222222222-0000000000000000------------------------|
D|-0000000000000000-0000000000000000-0000000000000000------------------------|
A|-2222222222222222------------------2222222222222222------------------------|
E|-3333333333333333------------------3333333333333333------------------------|
pm ................ ................ ................

e|-0000000000000000-0000000000000000-----------------------------------------|
B|-0000000000000000-2222222222222222-----------------------------------------|
G|-0000000000000000-2222222222222222-----------------------------------------|
D|-2222222222222222-2222222222222222-----------------------------------------|
A|-2222222222222222-0000000000000000-----------------------------------------|
E|-0000000000000000----------------------------------------------------------|

Bridge
e|-33333333-22222222-00000000-2222-0000--------------------------------------|
B|-33333333-33333333-22222222-3333-2222--------------------------------------|
G|-00000000-22222222-22222222-4444-2222--------------------------------------|
D|-00000000-00000000-22222222-4444-2222--------------------------------------|
A|-22222222----------00000000-2222-0000--------------------------------------|
E|-33333333------------------------------------------------------------------|

e|---333333-2222-0000---333333-2222-0000----333333-2222-0000-----------------|
B|---333333-3333-2222---333333-3333-2222----333333-3333-2222-----------------|
G|---000000-2222-2222---000000-2222-2222----000000-2222-2222-----------------|
D|---000000-0000-2222---000000-0000-2222----000000-0000-2222-----------------|
A|---222222------0000---222222------0000----222222------0000-----------------|
E|---333333-------------333333--------------333333---------------------------|

e|-0000000000000000-3--------------------------------------------------------|
B|-0000000000000000-3--------------------------------------------------------|
G|-0000000000000000-0--------------------------------------------------------|
D|-2222222222222222-0--------------------------------------------------------|
A|-2222222222222222-2--------------------------------------------------------|
E|-0000000000000000-3--------------------------------------------------------|

Chorus
e|-22222222-22222222-00000000-3333-0000--------------------------------------|
B|-33333333-33333333-00000000-3333-2222--------------------------------------|
G|-44444444-22222222-00000000-0000-2222--------------------------------------|
D|-44444444-00000000-22222222-0000-2222--------------------------------------| x2 
A|-22222222----------22222222-2222-0000--------------------------------------|
E|-------------------00000000-3333-------------------------------------------|

e|-3333333333333333-2222222222222222-3333333333333333------------------------|
B|-3333333333333333-3333333333333333-3333333333333333------------------------|
G|-0000000000000000-2222222222222222-0000000000000000------------------------|
D|-0000000000000000-0000000000000000-0000000000000000------------------------|
A|-2222222222222222------------------2222222222222222------------------------|
E|-3333333333333333------------------3333333333333333------------------------|
pm ................ ................ ................

e|-0000000000000000-0000000000000000-----------------------------------------|
B|-0000000000000000-2222222222222222-----------------------------------------|
G|-0000000000000000-2222222222222222-----------------------------------------|
D|-2222222222222222-2222222222222222-----------------------------------------|
A|-2222222222222222-0000000000000000-----------------------------------------|
E|-0000000000000000----------------------------------------------------------|

Outro
Guitar 1
e|-2-2-x-x-3-3-x-x-2-2-x-x-0-0-x-x-2-2-x-x-3-3-x-x-2-2-x-x-0-0-x-x-2-2-------|
B|-3-3-x-x-3-3-x-x-3-3-x-x-2-2-x-x-3-3-x-x-3-3-x-x-3-3-x-x-2-2-x-x-3-3-------|
G|-4-4-x-x-0-0-x-x-2-2-x-x-2-2-x-x-4-4-x-x-0-0-x-x-2-2-x-x-2-2-x-x-4-4-------|
D|-4-4-x-x-0-0-x-x-0-0-x-x-2-2-x-x-4-4-x-x-0-0-x-x-0-0-x-x-2-2-x-x-4-4-------| 
A|-2-2-x-x-2-2-x-x-----x-x-0-0-x-x-2-2-x-x-2-2-x-x-----x-x-0-0-x-x-2-2-------|
E|-----x-x-3-3-x-x-----x-x-----x-x-----x-x-3-3-x-x-----x-x-----x-x-----------|

Guitar 2
e|---------------------------------------------------------------------------|
B|-----12-12-12-10-10-8-8-7-7-7-7-x-5-5--------------------------------------|
G|-----x--x--x--x--x--x-x-x-x-x-x-x-x-x--------------------------------------|
D|-----9--9--9--7--7--5-5-4-4-4-4-x-2-2--------------------------------------| x2
A|---------------------------------------------------------------------------|
E|---------------------------------------------------------------------------|


| /  slide up
| \  slide down
| h  hammer-on
| p  pull-off
| ~  vibrato
| +  harmonic
| x  Mute note
======================================================================================
Tap to rate this tab
 
# A B C D E F G H I J K L M N O P Q R S T U V W X Y Z