Song name
# A B C D E F G H I J K L M N O P Q R S T U V W X Y Z

Bowling For Soup - Jimmy Neutron Theme tab

Song: Jimmy Neutron Theme
Artist: Bowling for Soup
Tuning: Standard
Tabbed by: azz (azwan082@gmail.com)

intro (harmonics) [2nd guitar]
|-5--5-5--5--5-5--5--(echo)--|
|----------------------------|
|----------------------------|
|----------------------------|
|----------------------------|
|----------------------------|

intro (distortion) [1st guitar]
|----------------------------------|
|----------------------------------|
|----------------------------------|
|----------------------------------|
|-0-0-3-3-5-5-3-3-0-0-6-6-5-5-3-3--|
|----------------------------------|

intro (clean, jazz) [2nd guitar]
|--------------|
|--------------|
|-----8~--7~---|
|-7~--8~--7~---|
|-7~--6~--5~---|
|-5~-----------|

verse
|-----------------------|---------------------------|
|-----------------------|---------------------------|
|------5-5-7-7----------|----------5-5-7-7----------|
|-7~---5-5-7-7-7-7-7-7--|--7-7-7-7-5-5-7-7-7-7-7-7--|
|-7~---3-3-5-5-7-7-7-7--|--7-7-7-7-3-3-5-5-7-7-7-7--|
|-5~-----------5-5-5-5--|--5-5-5-5---------5-5-5-5--|
p.m                        * * * *

prechorus
|---------------------------------------------|-----|
|----------------------------------7----------|-----|
|-5-5-7-7--------------------------7--5-5-7-7-|-4~--|
|-5-5-7-7-7-7-7-7------5h7-5h7-5h7----5-5-7-7-|-4~--|
|-3-3-5-5-7-7-7-7--5h7----------------3-3-5-5-|-2~--|
|---------5-5-5-5--(fill)---------------------|-----|

chorus
|------------------------------------------------------------------|
|------------------------------------------------------------------|
|-5-5-----7-7-----5-5-5-5-7-7-7-7---------5-5-5-5-7-7-7-7----------|
|-5-5-5-5-7-7-7-7-5-5-5-5-7-7-7-7-7-7-7-7-5-5-5-5-7-7-7-7-7-7-7-7--|
|-3-3-5-5-5-5-7-7-3-3-3-3-5-5-5-5-7-7-7-7-3-3-3-3-5-5-5-5-7-7-7-7--|
|-----3-3-----5-5-----------------5-5-5-5-----------------5-5-5-5--|

outro (repeated)
|------------------|
|------------------|
|-5-5-7-7----------|
|-5-5-7-7-7-7-7-7--|
|-3-3-5-5-7-7-7-7--|
|---------5-5-5-5--|
Tap to rate this tab
# A B C D E F G H I J K L M N O P Q R S T U V W X Y Z