Song name
# A B C D E F G H I J K L M N O P Q R S T U V W X Y Z

Bowling For Soup - Ready Or Not Omaha Nebraska tab

Title: (Ready or not) Omaha Nebraska
Artist: Bowling for Soup
Tuning: Standard
Tabbed by: azz (azwan082@gmail.com)

intro
|----------------------------------|
|----------------------------------|
|-----9-9-7-7-9-9-----9-9-7-7-9-9--|
|-7-7-9-9-7-7-9-9-7-7-9-9-7-7-9-9--|
|-7-7-7-7-5-5-7-7-7-7-7-7-5-5-7-7--|
|-5-5-------------5-5--------------|

intro
|------------------------------------------------------------------|
|-------------5-5-------------5-5-5-5------------------------------|
|-----6-6-7-7---------6-6-7-7---------7-7-6-6-4-4-7-7-6-6-4-4------|
|-7-7-------------7-7-----------------------------------------7-7--|
|------------------------------------------------------------------|
|------------------------------------------------------------------|

verse
|---------------------------------------------|
|---------------------------------------------|
|------------7-7-7-7-----9-7-7-7-----9-7-7-7--|
|----7-7-7-7-7-7-7-7-7-7-9-7-7-7-7-7-9-7-7-7--|
|----7-7-7-7-5-5-5-5-7-7-7-5-5-5-7-7-7-5-5-5--|
|----5-5-5-5---------5-5---------5-5----------|
p.m  * * * * * * * *
(2nd verse 1st part no p.m)

prechorus
|---------------------|
|----------------4-4--|
|----5-5-5-5-5-5-5-5--|
|----5-5-5-5-5-5-5-5--|
|----3-3-3-3-3-3-3-3--|
|---------------------|
p.m    * * * * *

chorus
|----------------------------------|----------|--------------------------|
|----------------------------------|----------|--------------------------|
|---------7-7-7-7---------7-7-7-7--|----------|--------------------------|
|-7-7-7-7-7-7-7-7-7-7-7-7-7-7-7-7--|-5-5-5-5--|-5-5-5-5-5-5-5-5-2-2-2-2--|
|-7-7-7-7-5-5-5-5-7-7-7-7-5-5-5-5--|-5-5-5-5--|-5-5-5-5-5-5-5-5-2-2-2-2--|
|-5-5-5-5---------5-5-5-5----------|-3-3-3-3--|-3-3-3-3-2-2-2-2-0-0-0-0--|
				     1st	2nd chorus
bridge
|----------------------------------|
|-----9-9-7-7-9-9-----9-9-7-7-9-9--|
|-7-7-9-9-7-7-9-9-7-7-9-9-7-7-9-9--|
|-7-7-7-7-5-5-7-7-7-7-7-7-5-5-7-7--|
|-5-5-------------5-5--------------|
|----------------------------------|

solo
|-------------------------------------------------------------------------------------|
|-------------------------------------------------------------------------------------|
|-9--9-9--9-11-9-----------------------------9--9-9--9-11--9--------------------------|
|-----------------9--11-12--12--12-11--9--7-------------------9--11-12--12--12-11--9--|
|-------------------------------------------------------------------------------------|
|-------------------------------------------------------------------------------------|

(cont.)
|------------------------------|-----------------|
|------------------------------|-----------------|
|-7-7-7-7--7-7-7-7-------------|-----7~------7~--|
|-7-7-7-7--7-7-7-7--5-5-5-5-7--|-7~--7~--7~--7~--|
|-5-5-5-5--5-5-5-5--5-5-5-5-7--|-7~--5~--7~--5~--|
|-------------------3-3-3-3-5--|-5~------5~------|
				(clean)
end with
|------|
|------|
|------|
|-7~---
|-7~---
|-5~---
Tap to rate this tab
 
# A B C D E F G H I J K L M N O P Q R S T U V W X Y Z