Song name
# A B C D E F G H I J K L M N O P Q R S T U V W X Y Z

Box Car Racer - What Went Wrong tab

----------------------------------------------------------------------------
	    WHAT WENT WRONG - Boxcar Racer/Tom Delonge    
Tabbed by: aidenundrgrnd
Email: snowboardmxer182@msn.com

Tuning: Standard


--Intro (this little riff is also played throughout at various times)--

e|-------------------|
B|-------------------|
G|-------------------|
D|----9-7------9-7---|
A|--7--------7-------|
E|-------------------|

--Verse 1--
e|--------------------------------------------------------|
B|--------------------------------------------------------|
G|-----------------------------777-7777-------------------|
D|-77-777-777-777-777/-444-444-777-7777-------------------|
A|-77-777-777-777-777/-444-444-555-5555-------------------|
E|-55-555-555-555-555/-222-222----------------------------| 


--Verse 2--
e|--------------------------------------------------------------------|
B|--------------------------------------------------------------------|
G|-------------------------------/-9-999999999999---777777777777------|
D|-7-777777777777-4-444444444444-/-9-999999999999-7-777777777777------|
A|-7-777777777777-4-444444444444-/-7-777777777777-5-555555555555------|
E|-5-555555555555-2-222222222222--------------------------------------|


--Verse 1 --

--Verse 2 --

--Chorus--
e|-------------------------------------------------------------|
B|-------------------------------------------------------------|
G|----------------------------------------------7-7-7-7777777--|
D|-7-7-7-7777777--7-7-7-7777777--4-4-4-4444444--7-7-7-7777777--|
A|-7-7-7-7777777--7-7-7-7777777--4-4-4-4444444--5-5-5-5555555--|
E|-5-5-5-5555555--4-4-4-4444444--2-2-2-2222222-----------------|--

--Verse 2 --

--Chorus --

--Interlude pt. 1--
e|-----0----------------0----------------0-----------------0------------|
B|-------------2----------------2-----------------2-----------------2---|
G|---2---2---2---2----2---2---2---2----2---2----2---2----2---2----2---2-|
D|-----------------------------------0--------0--------0--------0-------|
A|----------------------------------------------------------------------|
E|-2--------2-------2--------2------------------------------------------|

e|-----0---------------0------------------------------------------------|
B|-------------2---------------2--------2-----2------2-2222222----------|
G|---2---2---2---2---2---2---2---2----2-----2-----2--2-2222222----------|
D|----------------------------------0-----0-----0----0-0000000----------|
A|-0-------0-------2-------2--------------------------------------------|
E|----------------------------------------------------------------------|


--Interlude Pt. 2--
e|--------------------------------------------------------------------|
B|--------------------------------------------------------------------|
G|----------------7-777777777777-7-777777777777777777777777-----------|
D|-4-444444444444-7-777777777777-7-777777777777777777777777-----------|
A|-4-444444444444-5-555555555555-4-444444444444444444444444-----------|
E|-2-222222222222-----------------------------------------------------|

e|-------------------------------------|
B|-------------------------------------|
G|-9-999999999999/-7-777777777777------|
D|-9-999999999999/-7-777777777777------|
A|-7-777777777777/-5-555555555555------|
E|-------------------------------------|

--Verse 1 --

End 


| /  slide up
| \  slide down
| h  hammer-on
| p  pull-off
| ~  vibrato
| +  harmonic
| x  Mute note
===============================================================================
Tap to rate this tab
# A B C D E F G H I J K L M N O P Q R S T U V W X Y Z