Song name
# A B C D E F G H I J K L M N O P Q R S T U V W X Y Z

Box Car Racer - I Feel So tab

Key:
b=bend
x=mute
/=slide
u and d=up and down strumming
...=palm muting


Piano Intro:
e-------7---8---7--5------8--7----------------------}
B-8---8---7---5--7--3--8----7---5-8-3-7-8-----------}
G---7------------------0-7--------------------------}
D-5-------4---2---4------0-4--2-2-0-4-4-5-----------}
A------------------5--------------------------------}
E---------------------------------------------------}

Intro Part 2:
e--------------------------------------------}
B--------------------------------------------}
G-----4----5----4----5-----4----5----4----5--}
D---5-5--4-4--2-2--4-4---5-5--4-4--2-2--4-4--}
A--------------------------------------------}
E--------------------------------------------}

e----------------------------------------------------}
B----------------------------------------------------}
G----------------------------------------------------}
D-----------------5-5-5-5-5-5-5-5-5-5-5-5-5-5-5-5----}
A--5b-------5b----x-x-x-x-x-x-x-x-x-x-x-x-x-x-x-x----}
E--3b-------3b----3-3-3-3-3-3-3-3-3-3-3-3-3-3-3-3----}

e-------------------------------------------------------------------------------------------}
B-------------------------------------------------------------------------------------------}
G---------------7-7-7-7----------------7-7-7-7----------------7-7-7-7-------------------4-4-}
D-6/5-5--6/5-5--x-x-x-x--6/5-5--6/5-5--x-x-x-x--6/5-5--6/5-5--x-x-x-x----6/5-5--6/5-5---x-x-}
A-x/x-x--x/x-x--5-5-5-5--x/x-x--x/x-x--5-5-5-5--x/x-x--x/x-x--5-5-5-5----x/x-x--x/x-x---2-2-}
E-4/3-3--4/3-3-----------4/3-3--4/3-3-----------4/3-3--4/3-3-------------4/3-3--4/3-3-------}
                u and d                u and d                u and d                   d&u

Verse:
e--------------------------------------------}
B--------------------------------------------}
G--------------------------------------------}
D---5-5--4-4--2-2--4-4---5-5--4-4--2-2--4-4--}
A--------------------------------------------}
E--------------------------------------------}

e---------------------------------}
B---------------------------------}
G---------------------------------}
D--5-5--4-4--2-2--4-4-------------}
A--5-5--4-4--2-2--4-4-------------}
E--3-3--2-2--0-0--2-2-------------}
   ..................

Chorus: (x2)
e------------------------------------------------------------}
B------------------------------------------------------------}
G--9999999---8888888---6666666---8888888---------------------}
D--9999999---8888888---6666666---8888888---------------------}
A--7777777---6666666---4444444---6666666---------------------}
E------------------------------------------------------------}

e-------------------------------------------------------------------------------------------}
B-------------------------------------------------------------------------------------------}
G---------------7-7-7-7----------------7-7-7-7----------------7-7-7-7-------------------4-4-}
D-6/5-5--6/5-5--x-x-x-x--6/5-5--6/5-5--x-x-x-x--6/5-5--6/5-5--x-x-x-x----6/5-5--6/5-5---x-x-}
A-x/x-x--x/x-x--5-5-5-5--x/x-x--x/x-x--5-5-5-5--x/x-x--x/x-x--5-5-5-5----x/x-x--x/x-x---2-2-}
E-4/3-3--4/3-3-----------4/3-3--4/3-3-----------4/3-3--4/3-3-------------4/3-3--4/3-3-------}
                u and d                u and d                u and d                   d&u

Verse:
e--------------------------------------------}
B--------------------------------------------}
G--------------------------------------------}
D---5-5--4-4--2-2--4-4---5-5--4-4--2-2--4-4--}
A--------------------------------------------}
E--------------------------------------------}

e---------------------------------}
B---------------------------------}
G---------------------------------}
D--5-5--4-4--2-2--4-4-------------}
A--5-5--4-4--2-2--4-4-------------}
E--3-3--2-2--0-0--2-2-------------}
   ..................


Chorus: (2)
e------------------------------------------------------------}
B------------------------------------------------------------}
G--9999999---8888888---6666666---8888888---------------------}
D--9999999---8888888---6666666---8888888---------------------}
A--7777777---6666666---4444444---6666666---------------------}
E------------------------------------------------------------}

Riff:
e---------------------------------------------------------------------}
B---------------------------------------------------------------------}
G-------------------------7-7-7-7---7-7-7-7--7-7-7-7------------------}
D-5-----------------------7-7-7-7---7-7-7-7--7-7-7-7------------------}
A-5-(ring)--Pickslide-----5-5-5-5---5-5-5-5--5-5-5-5------Pickslide---}
E-3-------------------------------------------------------------------}
                           ....... <--u and d
e---------------------------------------------------------------------------}
B---------------------------------------------------------------------------}
G---------------7-7-7-7----------------7-7-7-7----------------7-7-7-7-------}
D-6/5-5--6/5-5--x-x-x-x--6/5-5--6/5-5--x-x-x-x--6/5-5--6/5-5--x-x-x-x-------}
A-x/x-x--x/x-x--5-5-5-5--x/x-x--x/x-x--5-5-5-5--x/x-x--x/x-x--5-5-5-5-------}
E-4/3-3--4/3-3-----------4/3-3--4/3-3-----------4/3-3--4/3-3----------------}
  ............  u and d  ............  u and d  ............  u and d    

e------------------------------------------------------}
B------------------------------------------------------}
G-444-444-4444-444-444-4------444-444-4444-444-444-----}
D-xxx-xxx-xxxx-xxx-xxx-x-(x2)-xxx-xxx-xxxx-xxx-xxx-----}
A-222-222-2222-222-222-2------222-222-2222-222-222-----}
E------------------------------------------------------}


Chorus: (x2)
e------------------------------------------------------------}
B------------------------------------------------------------}
G--9999999---8888888---6666666---8888888---------------------}
D--9999999---8888888---6666666---8888888---------------------}
A--7777777---6666666---4444444---6666666---------------------}
E------------------------------------------------------------}

End on:
e-----------}
B-----------}
G--9--------}
D--9--------}
A--7--------}
E-----------}
Tap to rate this tab
# A B C D E F G H I J K L M N O P Q R S T U V W X Y Z