Song name
# A B C D E F G H I J K L M N O P Q R S T U V W X Y Z

Box Car Racer - There Is tab

Help us improve GuitareTab! Take a short survey!
Author: Tab182
Song: There is
Band: Boxcar racer
Tuning: Standard E b g d a e
Strumming figures may not be exact but its easy to work out if you listen to the record.

Intro: x2, each chords 8 or 10 times, the x means mute 
e-----------------------------------
b-----------------------------------
g-8---6---9--6--3-------------------
d-x---x---x--x--x-------------------
a-6---4---7--4--1-------------------
e-----------------------------------

Verse: x4, (Strum each chords roughly 8 or ten times)
e-2-------------------------------------
b-2-------------------------------------
g-4-----4-----6-----1-------------------
d-4-----4-----6-----2-------------------
a-2-----4-----6-----2-------------------
e-------2-----4-----0------------------

Chorus: x2, Guitar one plays this, again each chord is strummed 8 or 10 times
e--------------------------------------
b-4-------------------------------------
g-4-----4------4-----4---------------------
d-4-----4------6-----4---------------------
a-2-----4------6-----4---------------------
e-------2------4-----2-------------------

Chorus: Guitar 2 plays this riff 8 times on each chorus except the third.
e--------------------------------------
b------------2------------------------
g--4-----4---------------------------
d-----4-------------------------------
a--------------------------------------
e--------------------------------------

Then play the intro again and verse and chorus then there is this bridge, each chord strummed 8 times
e--------------------------------------------------
b---------------------------------------------------
g-8----9-----------------8----6---3------------
d-x----x---x2---4----2---x----x---x-------------
a-6----7--------x----x---6----4---1------------
e---------------2----0---------------------------

Then play Chorus without guitar two and last chorus with both guitars.

Its an easy song, although the bridge may not be 100% perfect, Have fun!!!!!!!

Related for There Is tab