Song name
# A B C D E F G H I J K L M N O P Q R S T U V W X Y Z

Box Car Racer - Watch The World tab

Artist: Boxcar Racer
Song: Watch the World

I have my guitar a helf step down and it sounds just like the recording
I've also made some small changes which I think sounds right.


e|--------------------------------------------------|
B|--------------------------------------------------|
G|-555555-7777-555555-7777-55555555-----------------|
D|-xxxxxx-xxxx-xxxxxx-xxxx-xxxxxxxx-222-------------|  2X
A|-333333-5555-333333-5555-33333333-----222--1-1111-|
E|--------------------------------------------------|


e|--------3---|
B|-0----------|
G|------------|             16X
D|------------|
A|---3--------|
E|------------|


e|--------------------------------------------------|
B|--------------------------------------------------|
G|-555555-7777-555555-7777-55555555-----------------|
D|-xxxxxx-xxxx-xxxxxx-xxxx-xxxxxxxx-222-------------|
A|-333333-5555-333333-5555-33333333-----222--1-1111-|
E|--------------------------------------------------|


e|--------3---|
B|-0----------|
G|------------|             16X
D|------------|
A|---3--------|
E|------------|


e|---------------------------------------|
B|---------------------------------------|
G|-55555555------------------------------|
D|-55555555-77777777-5555555555555555----|      4X
A|-33333333-77777777-5555555555555555----|
E|----------55555555-3333333333333333----|


e|-------------------------|
B|-------------------------|
G|-5555555---55--555555555-|
D|-xxxxxxx-7-55--xxxxxxxxx-|      2X
A|-3333333-7-33--333333333-|
E|---------5---------------|


e|-----------------|
B|-----------------|
G|-5----5---7--5-0-|
D|----5------------|        8X
A|-----------------|
E|-----------------|


e|---------------------------------------|
B|---------------------------------------|
G|-55555555------------------------------|
D|-55555555-77777777-5555555555555555----|      4X
A|-33333333-77777777-5555555555555555----|
E|----------55555555-3333333333333333----|

e|--------------------------------------------------|
B|--------------------------------------------------|
G|-555555-7777-555555-7777-55555555-----------------|
D|-xxxxxx-xxxx-xxxxxx-xxxx-xxxxxxxx-222-------------|
A|-333333-5555-333333-5555-33333333-----222--1-1111-|
E|--------------------------------------------------|


e|---------------------------------------------------|
B|---------------------------------------------------|
G|-555555-7777-555555-7777-55555555------------------|
D|-xxxxxx-xxxx-xxxxxx-xxxx-xxxxxxxx-222--------------|  let ring
A|-333333-5555-333333-5555-33333333----222--11-33333-|
E|---------------------------------------------------|
Tap to rate this tab
 
# A B C D E F G H I J K L M N O P Q R S T U V W X Y Z