Song name
# A B C D E F G H I J K L M N O P Q R S T U V W X Y Z

Box Car Racer - Letters To God tab

you'll have to listen to the song to get the strumming
pattern, tom plays some of it pretty weird.......enjoy.


intro

e-----------------------------------------
b-----------------------------------------
g-----------------------------------------
d-5555--44--5555--5555--44--5555----------
a-2222--44--5555--2222--44--5555----------
e-0000--22--3333--0000--22--3333----------


verse

e------------------------------------------
b------------------------------------------
g------------------------------------------
d-5555--5555--5555--5555-------------------  x2
a-2222--5555--2222--5555-------------------
e-0000--3333--0000--3333-------------------


chorus

e------------------------------------------
b------------------------------------------
g-------5555--------7777-------------------
d-5555--5555--5555--7777-------------------  x2
a-2222--3333--5555--5555-------------------
e-0000--0000--3333--0000-------------------


intro

e-----------------------------------------
b-----------------------------------------
g-----------------------------------------
d-5555--44--5555--5555--44--5555----------
a-2222--44--5555--2222--44--5555----------
e-0000--22--3333--0000--22--3333----------



verse

e------------------------------------------
b------------------------------------------
g------------------------------------------
d-5555--5555--5555--5555-------------------  x2
a-2222--5555--2222--5555-------------------
e-0000--3333--0000--3333-------------------



chorus

e------------------------------------------
b------------------------------------------
g-------5555--------7777-------------------
d-5555--5555--5555--7777-------------------  x2
a-2222--3333--5555--5555-------------------
e-0000--0000--3333--0000-------------------


Bridge
e------------------------------------------
b------------------------------------------
g------------------------------------------
d-55555555-77777777-99999999-77777777------
a-55555555-77777777-99999999-77777777------
e-33333333-55555555-77777777-55555555------

e--------------------------------------------
b--------------------------------------------
g--------------------------------------------
d-55555555-77777777-99999999-1010101010101010
a-55555555-77777777-99999999-1010101010101010
e-33333333-55555555-77777777--8-8-8-8-8-8-8-8

e-------------------------------------------
b-------------------------------------------
g-------------------------------------------
b-55555555-77777777-99999999-77777777-------  
a-55555555-77777777-99999999-77777777-------
e-33333333-55555555-77777777-55555555-------

e--------------------------------------------
b--------------------------------------------
g--------------------------------------------
d-55555555-77777777-99999999-1010101010101010
a-55555555-77777777-99999999-1010101010101010
e-33333333-55555555-77777777--8-8-8-8-8-8-8-8


play the rest with distortion

intro

e-----------------------------------------
b-----------------------------------------
g-----------------------------------------
d-5555--44--5555--5555--44--5555----------  x4
a-2222--44--5555--2222--44--5555----------
e-0000--22--3333--0000--22--3333----------

chorus

e------------------------------------------
b------------------------------------------
g-------5555--------7777-------------------
d-5555--5555--5555--7777-------------------  x4
a-2222--3333--5555--5555-------------------
e-0000--0000--3333--0000-------------------



end wih this

e---
b---
g---
d-5-
a-2-
e-0-


good luck

pussy residue is on my penis!!!!!!
Tap to rate this tab
 
# A B C D E F G H I J K L M N O P Q R S T U V W X Y Z