Song name
# A B C D E F G H I J K L M N O P Q R S T U V W X Y Z

Box Car Racer - There Is Acoustic tab

Intro 
Guitar 1
|------------------|
|------------------|
|-8--6--4--6-------|
|-------------8----|
|-6--4--2--4-------|
|-------------6----|

Intro 
Guitar 2
|------------------|
|------------------|
|-4--4--4--4--4----|
|-4--4--4--4--4----|
|-2-----2-----4----|
|----2--0--2--2----|

Verse + Chorus
|---------------|
|---------------|
|-4-----4--4----|
|-4--4--4--4----|
|-2--4--2--2----|
|----2--4--0----|

Chorus lead guitar
|-2--------------|
|--------2-------|
|---4-4-----4----|
|----------------|
|----------------|
|----------------|
Tap to rate this tab
 
# A B C D E F G H I J K L M N O P Q R S T U V W X Y Z