Song name
# A B C D E F G H I J K L M N O P Q R S T U V W X Y Z

Box Car Racer - There Is tab

Well, This song is very easy nice so, i hope you enjoy playing it.Let?s go!

Intro (x2):

e-----------------------------------
b-----------------------------------
g-9---7---5--7--4-------------------
d-x---x---x--x--x-------------------
a-7---5---3--5--2-------------------
e-----------------------------------

Verse (x4):
e---------------------------------------
b---------------------------------------
g-5-----5-------------------------------
d-5-----5-----7-----5-------------------
a-3-----2-----7-----5-------------------
e-------------5-----7------------------

Chorus (x2): Guitar one
e--------------------------------------
b---------------------------------------
g-5-----5------------5---------------------
d-5-----5------7-----5---------------------
a-3-----2------7-----2---------------------
e--------------5------------------------

Chorus: Guitar 2 
e--------------------------------------
b------------2------------------------
g--4-----4---------------------------
d-----4-------------------------------
a--------------------------------------
e--------------------------------------

And tht?s all.Enjoy. For more information, please, write to:Wannn_8@hotmail.com
Tap to rate this tab
# A B C D E F G H I J K L M N O P Q R S T U V W X Y Z