Song name
# A B C D E F G H I J K L M N O P Q R S T U V W X Y Z

Box Car Racer - There Is tab

Box Car Racer
There Is
Standard Tuning 
low to high - EADGBE



Intro:
Guitar1
E|-------------------------------------|
B|-------------------------------------|
G|-8-88-88-88-88888-6-66-66-66-66666---|
D|-X-XX-XX-XX-XXXXX-X-XX-XX-XX-XXXXX---| 
A|-6-66-66-66-66666-4-44-44-44-44444---|
E|-------------------------------------|
Guitar2                                
E|-------------------------------------|
B|-------------------------------------|
G|-4-44-44-44-44444-4-44-44-44-44444---|
D|-X-XX-XX-XX-XXXXX-X-XX-XX-XX-XXXXX---| 
A|-2-22-22-22-22222-2-22-22-22-22222---|
E|-------------------------------------|
Guitar1                                
E|--------------------------------------------|
B|--------------------------------------------|
G|-4-44-44-44-44444-6-66-666-3-33-33-33-33333-|
D|-X-XX-XX-XX-XXXXX-X-XX-XXX-X-XX-XX-XX-XXXXX-| 
A|-2-22-22-22-22222-4-44-444-1-11-11-11-11111-|
E|--------------------------------------------|
Guitar2
E|--------------------------------------------|
B|--------------------------------------------|
G|-4-44-44-44-44444-4-44-444-4-44-44-44-44444-|
D|-X-XX-XX-XX-XXXXX-X-XX-XXX-X-XX-XX-XX-XXXXX-| 
A|-2-22-22-22-22222-2-22-222-2-22-22-22-22222-|
E|--------------------------------------------| X2




Verse:
Guitar1
e|-----------------------------------|
B|-----------------------------------|
G|-4-44-44-44-44444------------------|
D|-X-XX-XX-XX-XXXXX-4-44-44-44-44444-|
A|-2-22-22-22-22222-X-XX-XX-XX-XXXXX-|
E|------------------2-22-22-22-22222-|
Guitar2
E|-----------------------------------|
B|-----------------------------------|
G|-4-44-44-44-44444-4-44-44-44-44444-|
D|-X-XX-XX-XX-XXXXX-X-XX-XX-XX-XXXXX-| 
A|-2-22-22-22-22222-2-22-22-22-22222-|
E|-----------------------------------|   
This vacations useless...
Guitar1
e|-----------------------------------|
B|-----------------------------------|
G|-----------------------------------|
D|-6-66-66-66-66666-2-22-22-22-22222-|
A|-X-XX-XX-XX-XXXXX-X-XX-XX-XX-XXXXX-|
E|-4-44-44-44-44444-0-00-00-00-00000-|
Guitar2
E|-----------------------------------|
B|-----------------------------------|
G|-4-44-44-44-44444-4-44-44-44-44444-|
D|-X-XX-XX-XX-XXXXX-X-XX-XX-XX-XXXXX-| 
A|-2-22-22-22-22222-2-22-22-22-22222-|
E|-----------------------------------| X4



Chorus
Guitar 1
E|---------------------------------------------------------------------|
B|-0---0--2--0-------0---0--2--0---------0---0--2--0-------0---0--2--0-|
G|---4-----------------4-------------------4-----------------4---------|
D|---------------------------------------------------------------------| 
A|---------------------------------------------------------------------|
E|---------------------------------------------------------------------| 
Guitar 2
e|---------------------------------------------------------------------|
B|---------------------------------------------------------------------|
G|-4-44-44-44-44444----------------------------------------------------|
D|-X-XX-XX-XX-XXXXX-4-44-44-44-44444-6-66-66-66-66666-4-44-44-44-44444-|
A|-2-22-22-22-22222-X-XX-XX-XX-XXXXX-X-XX-XX-XX-XXXXX-X-XX-XX-XX-XXXXX-|
E|------------------2-22-22-22-22222-4-44-44-44-44444-2-22-22-22-22222-| X2
Do you care if I...



Guitar1
E|-----------------------------------|
B|-----------------------------------|
G|-8-88-88-88-88888-6-66-66-66-66666-|
D|-X-XX-XX-XX-XXXXX-X-XX-XX-XX-XXXXX-| 
A|-6-66-66-66-66666-4-44-44-44-44444-|
E|-----------------------------------|
Guitar2                                
E|-----------------------------------|
B|-----------------------------------|
G|-4-44-44-44-44444-4-44-44-44-44444-|
D|-X-XX-XX-XX-XXXXX-X-XX-XX-XX-XXXXX-| 
A|-2-22-22-22-22222-2-22-22-22-22222-|
E|-----------------------------------|
Guitar1                                
E|--------------------------------------------|
B|--------------------------------------------|
G|-4-44-44-44-44444-6-66-666-3-33-33-33-33333-|
D|-X-XX-XX-XX-XXXXX-X-XX-XXX-X-XX-XX-XX-XXXXX-| 
A|-2-22-22-22-22222-4-44-444-1-11-11-11-11111-|
E|--------------------------------------------|
Guitar2
E|--------------------------------------------|
B|--------------------------------------------|
G|-4-44-44-44-44444-4-44-444-4-44-44-44-44444-|
D|-X-XX-XX-XX-XXXXX-X-XX-XXX-X-XX-XX-XX-XXXXX-| 
A|-2-22-22-22-22222-2-22-222-2-22-22-22-22222-|
E|--------------------------------------------| 




Guitar1
e|-----------------------------------|
B|-----------------------------------|
G|-4-44-44-44-44444------------------|
D|-X-XX-XX-XX-XXXXX-4-44-44-44-44444-|
A|-2-22-22-22-22222-X-XX-XX-XX-XXXXX-|
E|------------------2-22-22-22-22222-|
Guitar2
E|-----------------------------------|
B|-----------------------------------|
G|-4-44-44-44-44444-4-44-44-44-44444-|
D|-X-XX-XX-XX-XXXXX-X-XX-XX-XX-XXXXX-| 
A|-2-22-22-22-22222-2-22-22-22-22222-|
E|-----------------------------------|
Thos notes you wrote me...
Guitar1
e|-----------------------------------|
B|-----------------------------------|
G|-----------------------------------|
D|-6-66-66-66-66666-2-22-22-22-22222-|
A|-X-XX-XX-XX-XXXXX-X-XX-XX-XX-XXXXX-|
E|-4-44-44-44-44444-0-00-00-00-00000-|
Guitar2
E|-----------------------------------|
B|-----------------------------------|
G|-4-44-44-44-44444-4-44-44-44-44444-|
D|-X-XX-XX-XX-XXXXX-X-XX-XX-XX-XXXXX-| 
A|-2-22-22-22-22222-2-22-22-22-22222-|
E|-----------------------------------| X2




Chorus
Guitar 1
E|---------------------------------------------------------------------|
B|-0---0---2---0----0---0---2---0----0---0---2---0----0---0---2---0----|
G|---4----------------4----------------4----------------4--------------|
D|---------------------------------------------------------------------| 
A|---------------------------------------------------------------------|
E|---------------------------------------------------------------------| 
Guitar 2
e|---------------------------------------------------------------------|
B|---------------------------------------------------------------------|
G|-4-44-44-44-44444----------------------------------------------------|
D|-X-XX-XX-XX-XXXXX-4-44-44-44-44444-6-66-66-66-66666-4-44-44-44-44444-|
A|-2-22-22-22-22222-X-XX-XX-XX-XXXXX-X-XX-XX-XX-XXXXX-X-XX-XX-XX-XXXXX-|
E|------------------2-22-22-22-22222-4-44-44-44-44444-2-22-22-22-22222-| X2
Do you care if I...



Interlude:
Gutiar1
E|-----------------------------------|
B|-----------------------------------| 
G|-8-88-88-88-88888-9-99-99-99-99999-| 
D|-X-XX-XX-XX-XXXXX-X-XX-XX-XX-XXXXX-| 
A|-6-66-66-66-66666-7-77-77-77-77777-| 
E|------------------0-00-00-00-00000-| 
Guitar2                              
E|-----------------------------------| 
B|-----------------------------------| 
G|-4-44-44-44-44444-4-44-44-44-44444-| 
D|-X-XX-XX-XX-XXXXX-X-XX-XX-XX-XXXXX-| 
A|-2-22-22-22-22222-2-22-22-22-22222-| 
E|-----------------------------------|
Gutiar1
E|-----------------------------------|
B|-----------------------------------| 
G|-8-88-88-88-88888-9-99-99-99-99999-| 
D|-X-XX-XX-XX-XXXXX-X-XX-XX-XX-XXXXX-| 
A|-6-66-66-66-66666-7-77-77-77-77777-| 
E|------------------0-00-00-00-00000-| 
Guitar2
E|-----------------------------------|
B|-----------------------------------|
G|-4-44-44-44-44444-4-44-44-44-44444-|
D|-X-XX-XX-XX-XXXXX-X-XX-XX-XX-XXXXX-| 
A|-2-22-22-22-22222-2-22-22-22-22222-|
E|-----------------------------------|
Gutiar1
E|-----------------------------------|
B|-----------------------------------| 
G|-8-88-88-88-88888-9-99-99-99-99999-| 
D|-X-XX-XX-XX-XXXXX-X-XX-XX-XX-XXXXX-| 
A|-6-66-66-66-66666-7-77-77-77-77777-| 
E|------------------0-00-00-00-00000-| 
Guitar2
E|-----------------------------------|
B|-----------------------------------|
G|------------------4-44-44-44-44444-|
D|-6-66-66-66-66666-X-XX-XX-XX-XXXXX-| 
A|-X-XX-XX-XX-XXXXX-2-22-22-22-22222-|
E|-4-44-44-44-44444------------------|
Guitar1
E|-----------------------------------|
B|-----------------------------------|
G|------------------6-66-66-66-66666-|
D|-9-99-99-99-99999-X-XX-XX-XX-XXXXX-| 
A|-X-XX-XX-XX-XXXXX-4-44-44-44-44444-|
E|-7-77-77-77-77777------------------|
Guitar2
E|-----------------------------------|
B|-----------------------------------|
G|-4-44-44-44-44444-6-66-66-66-66666-|
D|-X-XX-XX-XX-XXXXX-X-XX-XX-XX-XXXXX-| 
A|-2-22-22-22-22222-4-44-44-44-44444-|
E|-----------------------------------|



Guitar1
e|-----------------------------------|
B|-----------------------------------|
G|-4-44-44-44-44444------------------|
D|-X-XX-XX-XX-XXXXX-4-44-44-44-44444-|
A|-2-22-22-22-22222-X-XX-XX-XX-XXXXX-|
E|------------------2-22-22-22-22222-|
Guitar2
E|-----------------------------------|
B|-----------------------------------|
G|-4-44-44-44-44444-4-44-44-44-44444-|
D|-X-XX-XX-XX-XXXXX-X-XX-XX-XX-XXXXX-| 
A|-2-22-22-22-22222-2-22-22-22-22222-|
E|-----------------------------------|
Do you care if I...
Guitar1
e|-----------------------------------|
B|-----------------------------------|
G|-----------------------------------|
D|-6-66-66-66-66666-4-44-44-44-44444-|
A|-X-XX-XX-XX-XXXXX-X-XX-XX-XX-XXXXX-|
E|-4-44-44-44-44444-2-22-22-22-22222-|
Guitar2
E|-----------------------------------|
B|-----------------------------------|
G|-4-44-44-44-44444-4-44-44-44-44444-|
D|-X-XX-XX-XX-XXXXX-X-XX-XX-XX-XXXXX-| 
A|-2-22-22-22-22222-2-22-22-22-22222-|
E|-----------------------------------| X2



Guitar 1
E|---------------------------------------------------------------------|
B|-0---0---2---0----0---0---2---0----0---0---2---0----0---0---2---0----|
G|---4----------------4----------------4----------------4--------------|
D|---------------------------------------------------------------------| 
A|---------------------------------------------------------------------|
E|---------------------------------------------------------------------| 
Guitar2
E|---------------------------------------------------------------------|
B|---------------------------------------------------------------------|
G|-8-88-88-88-88888-6-66-66-66-66666-8-88-88-88-88888-6-66-66-66-66666-|
D|-X-XX-XX-XX-XXXXX-X-XX-XX-XX-XXXXX-X-XX-XX-XX-XXXXX-X-XX-XX-XX-XXXXX-| 
A|-6-66-66-66-66666-4-44-44-44-44444-6-66-66-66-66666-4-44-44-44-44444-|
E|---------------------------------------------------------------------| X2
Do you care if I...



Guitar 1
e|------------|
B|------------|
G|-4----------|
D|-X----------|
A|-2----------|
E|------------|
Guitar 2
e|------------|
B|------------|
G|-4----------|
D|-X----------|
A|-2----------|
E|------------|
Tap to rate this tab
 
# A B C D E F G H I J K L M N O P Q R S T U V W X Y Z