Song name
# A B C D E F G H I J K L M N O P Q R S T U V W X Y Z

Box Car Racer - There Is tab

Box Car Racer
There Is
Tunning: Standard
Im not sure of the strumming but if you listen to the song it is easy to pick up


Intro: Play 2x
E|-------------------|--------------------|---------------------|---------|--------|
A|-------------------|--------------------|---------------------|---------|--------|
D|88-88-88-88--88888-|-66-66-66-66--66666-|-44-44-44-44--44444--|-66-666--|-33-333-|
G|xx-xx-xx-xx--xxxxx-|-xx-xx-xx-xx--xxxxx-|-xx-xx-xx-xx--xxxxx--|-xx-xxx--|-xx-xxx-|
B|66-66-66-66--66666-|-44-44-44-44--44444-|-22-22-22-22--22222--|-44-444--|-11-111-|
E|-------------------|--------------------|---------------------|---------|--------|


Verse: Play 4x
E|-------------------|--------------------|-------------------|--------------------|
A|-------------------|--------------------|-------------------|--------------------|
D|44-44-44-44--44444-|--------------------|-------------------|-99-99-99-99--99999-|
G|xx-xx-xx-xx--xxxxx-|-44-44-44-44---44444|-66-66-66-66-66666-|-xx-xx-xx-xx--xxxxx-|
B|22-22-22-22--22222-|-xx-xx-xx-xx---xxxxx|-xx-xx-xx-xx-xxxxx-|-77-77-77-77--77777-|
E|-------------------|-22-22-22-22---22222|-44-44-44-44-44444-|--------------------|


Chorus: 2x
E|------------------|--------------------|-------------------|---------------------|
A|------------------|--------------------|-------------------|---------------------|
D|44-44-44-44--44444|--------------------|-------------------|---------------------|
G|xx-xx-xx-xx--xxxxx|-44-44-44-44--44444-|66-66-66-66--66666-|-44-44-44-44---44444-|
B|22-22-22-22--22222|-xx-xx-xx-xx--xxxxx-|xx-xx-xx-xx--xxxxx-|-xx-xx-xx-xx---xxxxx-|
E|------------------|-22-22-22-22--22222-|44-44-44-44--44444-|-22-22-22-22---22222-|

Intro: Play 1x
E|-------------------|--------------------|---------------------|---------|--------|
A|-------------------|--------------------|---------------------|---------|--------|
D|88-88-88-88--88888-|-66-66-66-66--66666-|-44-44-44-44--44444--|-66-666--|-33-333-|
G|xx-xx-xx-xx--xxxxx-|-xx-xx-xx-xx--xxxxx-|-xx-xx-xx-xx--xxxxx--|-xx-xxx--|-xx-xxx-|
B|66-66-66-66--66666-|-44-44-44-44--44444-|-22-22-22-22--22222--|-44-444--|-11-111-|
E|-------------------|--------------------|---------------------|---------|--------|

Verse: Play 4x
E|------------------|---------------------|-------------------|--------------------|
A|------------------|---------------------|-------------------|--------------------|
D|44-44-44-44--44444|---------------------|-------------------|-99-99-99-99--99999-|
G|xx-xx-xx-xx--xxxxx|-44-44-44-44---44444-|-66-66-66-66-66666-|-xx-xx-xx-xx--xxxxx-|
B|22-22-22-22--22222|-xx-xx-xx-xx---xxxxx-|-xx-xx-xx-xx-xxxxx-|-77-77-77-77--77777-|
E|------------------|-22-22-22-22---22222-|-44-44-44-44-44444-|--------------------|

Chorus: 2x
E|------------------|--------------------|-------------------|---------------------|
A|------------------|--------------------|-------------------|---------------------|
D|44-44-44-44--44444|--------------------|-------------------|---------------------|
G|xx-xx-xx-xx--xxxxx|-44-44-44-44--44444-|66-66-66-66--66666-|-44-44-44-44---44444-|
B|22-22-22-22--22222|-xx-xx-xx-xx--xxxxx-|xx-xx-xx-xx--xxxxx-|-xx-xx-xx-xx---xxxxx-|
E|------------------|-22-22-22-22--22222-|44-44-44-44--44444-|-22-22-22-22---22222-|

Interlude 1st Part: play 2x
E|-------------------|-----------------------|
A|-------------------|-----------------------|
D|88-88-88-88--88888-|-99-99-99-99---99999---|
G|xx-xx-xx-xx--xxxxx-|-xx-xx-xx-xx---xxxxx---|
B|66-66-66-66--66666-|-77-77-77-77---77777---|
E|-------------------|-----------------------|

Interlude 2nd Part: Play 1x
E|-------------------|--------------------|--------------------|------------------|
A|-------------------|--------------------|--------------------|------------------|
D|-------------------|--------------------|-44-44-44-44--44444-|-66-66-66-66-66666|
G|66-66-66-66-666666-|-22-22-22-22--22222-|-xx-xx-xx-xx--xxxxx-|-xx-xx-xx-xx-xxxxx|
B|xx-xx-xx-xx--xxxxx-|-xx-xx-xx-xx--xxxxx-|-22-22-22-22--22222-|-44-44-44-44-44444|
E|44-44-44-44--44444-|-00-00-00-00--00000-|--------------------|------------------|

Right before you play the last Chours of the song play this sttrumming lightly 
:Play 2x
E|-------------------|-------------------|-------------------|-------------------|
A|-------------------|-------------------|-------------------|-------------------|
D|-44-44-44-44-44444-|-44-44-44-44-44444-|-44-44-44-44-44444-|-44-44-44-44-44444-|
G|-xx-xx-xx-xx-xxxxx-|-44-44-44-44-44444-|-44-44-44-44-44444-|-44-44-44-44-44444-|
B|-22-22-22-22-22222-|-xx-xx-xx-xx-xxxxx-|-xx-xx-xx-xx-xxxxx-|-xx-xx-xx-xx-xxxxx-|
E|-------------------|-22-22-22-22-22222-|-44-44-44-44-44444-|-22-22-22-22-22222-|

Chorus: 2x
E|------------------|--------------------|-------------------|---------------------|
A|------------------|--------------------|-------------------|---------------------|
D|44-44-44-44--44444|--------------------|-------------------|---------------------|
G|xx-xx-xx-xx--xxxxx|-44-44-44-44--44444-|66-66-66-66--66666-|-44-44-44-44---44444-|
B|22-22-22-22--22222|-xx-xx-xx-xx--xxxxx-|xx-xx-xx-xx--xxxxx-|-xx-xx-xx-xx---xxxxx-|
E|------------------|-22-22-22-22--22222-|44-44-44-44--44444-|-22-22-22-22---22222-|

And thats it!
Tap to rate this tab
# A B C D E F G H I J K L M N O P Q R S T U V W X Y Z