Song name
# A B C D E F G H I J K L M N O P Q R S T U V W X Y Z

Box Car Racer - I Feel So tab

Help us improve GuitareTab! Take a short survey!
Box Car Racer 
I Feel So

Piano Arrangement:
E||-------7---8---7--5------8--7----------------------|
B||-8---8---7---5--7--3--8----7---5-8-3-7-8-----------|
G||---7------------------0-7--------------------------|
D||-5-------4---2---4------0-4--2-2-0-4-4-5-----------|
A||------------------5--------------------------------|
E||---------------------------------------------------|

Riff A (Acoustic)
E||--------------------------|
B||--------------------------|
G||--0--4-----5--0--4-----2--|
D||--5--5--4--4--2--2--4--4--|
A||--------------------------|
E||--------------------------|

Intro
E||------0------------------------------------0--|
B||------0---------------------------------0--0--|
G||------0-------7-7-7-7-7-7-7-7-7-7-------0-----|
D||------0-------x-x-x-x-x-x-x-x-x-x-------------|
A||------x-------5-5-5-5-5-5-5-5-5-5-------------|
E||--3---3---3-------------------------3---------|
    /\      /\                         /\
Bend a bunch of times w/feedback

Riff B
E||-------------------------|
B||-------------------------|
G||-----------------7-7-7-x-|
D||---5-5-5---5-5---x-x-x-x-|
A||---5-5-5---5-5---5-5-5-x-|
E||-0-3-3-3-0-3-3-0---------|

Riff B pt 2
E||---------------------|
B||---------------------|
G||-----------------x-4-|
D||---5-5-5---5-5---x-x-|
A||---5-5-5---5-5---x-2-|
E||-0-3-3-3-0-3-3-0-----|

Riff B pt 3
E||-----------------------|
B||-----------------------|
G||-----------------------|
D||---5-5-5---5-5---5-5-5-|
A||---5-5-5---5-5---2-2-2-|
E||-0-3-3-3-0-3-3-0-------|

Verse
E||------------------------------|
B||------------------------------|
G||------------------------------|
D||------------------------------|
A||------------------------------|
E||--3--3---2--2----0--0---2--2--|
PM  |--------------------------|

Chorus
E||-------------------------------------------------|
B||-------------------------------------------------|
G||-------------------------------------------------|
D||-2-2-2-2-2-2-2-2-2-2-2-2-9-9-9-9-9-9-9-9-9-9-9-9-|
A||-2-2-2-2-2-2-2-2-2-2-2-2-6-6-6-6-6-6-6-6-6-6-6-6-|
E||-0-0-0-0-0-0-0-0-0-0-0-0-------------------------|

E||-------------------------------------------------|
B||-------------------------------------------------|
G||-------------------------------------------------|
D||-6-6-6-6-6-6-6-6-6-6-6-6-9-9-9-9-9-9-9-9-9-9-9-9-|
A||-4-4-4-4-4-4-4-4-4-4-4-4-6-6-6-6-6-6-6-6-6-6-6-6-|
E||-------------------------------------------------|

Interlude (gtr 1)
E||---------------------------------------------|
B||---------------------------------------------|
G||---------------------------------------------|
D||---------------------------------------------|
A||---------------------------------------------|
E||-3-------------------------------------------|
 ||bend a whole bunch w/fdbk                    |
 ||                                             |
gtr 2                                           |
E||---------------------------------------------|
B||---------------------------------------------|
G||---------------------------------------------|
D||-5-------------------------------------------|
A||-x--------5-5-5-5--5-5-5-5--5-5-5-5--5-5-5-5-|
E||-3-------------------------------------------|
PM          |----------------------------------|

Riff C
E||-------------------------|
B||-------------------------|
G||-----------------7-7-7-7-|
D||-----------------x-x-x-x-|
A||---5-5-5---5-5---5-5-5-5-|
E||-0-3-3-3-0-3-3-0---------|
PM |---------------|

Bridge
E||--------------------------------------------------------|
B||--------------------------------------------------------|
G||-4-4-4-4-4-4-4-4-4-4-4-4-4-4-4-4-4-4-4-4-4-4-4-4-4-4--4-|
D||-x-x-x-x-x-x-x-x-x-x-x-x-x-x-x-x-x-x-x-x-x-x-x-x-x-x--x-|
A||-2-2-2-2-2-2-2-2-2-2-2-2-2-2-2-2-2-2-2-2-2-2-2-2-2-2--2-|
E||--------------------------------------------------------|

Bridge pt 2
E||-----------------------------------------------------|
B||-----------------------------------------------------|
G||-4-4-4-4-4-4-4-4-4-4-4-4-4-4-4-4-4-4-4-4-4-4-4-4-4-4-|
D||-x-x-x-x-x-x-x-x-x-x-x-x-x-x-x-x-x-x-x-x-x-x-x-x-x-x-|
A||-2-2-2-2-2-2-2-2-2-2-2-2-2-2-2-2-2-2-2-2-2-2-2-2-2-2-|
E||-----------------------------------------------------|

E||----------------------------|
B||----------------------------|
G||-4-4-4-4-4-4-4-4-4-4-4-4--4-|
D||-x-x-x-x-x-x-x-x-x-x-x-x--x-|
A||-2-2-2-2-2-2-2-2-2-2-2-2--2-|
E||----------------------------|

End On
E||---|
B||---|
G||---|
D||-2-|
A||-2-|
E||-0-|

Piano Arrangement
Riff A 2x
Intro
Riff B 3x
Riff B pt 2
Riff B 3x
Riff B pt 3
Riff A 2x
Riff A 2x (played w/Verse 2x)
Chorus 2x
Riff B 3x
Riff B pt 3
Riff A 2x
Riff A 2x (played w/Verse 2x)
Interlude
Riff C 4x
Bridge 2x
Bridge pt 2
Chorus 4x
End On
Related for I Feel So tab