Song name
# A B C D E F G H I J K L M N O P Q R S T U V W X Y Z

Box Car Racer - There Is tab

Box Car Racer
There Is

Intro (gtr 1) (Tom's Part)
E||-------------------------------------------------------------------------|
B||-------------------------------------------------------------------------|
G||-8-8-8-8-8-8-8-8-8-8-8-8-6-6-6-6-6-6-6-6-6-6-6-6-4-4-4-4-4-4-4-4-4-4-4-4-|
D||-x-x-x-x-x-x-x-x-x-x-x-x-x-x-x-x-x-x-x-x-x-x-x-x-x-x-x-x-x-x-x-x-x-x-x-x-|
A||-6-6-6-6-6-6-6-6-6-6-6-6-4-4-4-4-4-4-4-4-4-4-4-4-2-2-2-2-2-2-2-2-2-2-2-2-|
E||-------------------------------------------------------------------------|

E||---------------------|
B||---------------------|
G||-6-6-6-6-6-3-3-3-3-3-|
D||-x-x-x-x-x-x-x-x-x-x-| 2x
A||-4-4-4-4-4-1-1-1-1-1-|
E||---------------------|


Intro (gtr 2) (Dave's Part)
E||-------------------------------------------------------------------------|
B||-------------------------------------------------------------------------|
G||-4-4-4-4-4-4-4-4-4-4-4-4-4-4-4-4-4-4-4-4-4-4-4-4-4-4-4-4-4-4-4-4-4-4-4-4-|
D||-4-4-4-4-4-4-4-4-4-4-4-4-4-4-4-4-4-4-4-4-4-4-4-4-4-4-4-4-4-4-4-4-4-4-4-4-|
A||-2-2-2-2-2-2-2-2-2-2-2-2-x-x-x-x-x-x-x-x-x-x-x-x-x-x-x-x-x-x-x-x-x-x-x-x-|
E||-------------------------2-2-2-2-2-2-2-2-2-2-2-2-0-0-0-0-0-0-0-0-0-0-0-0-|

E||---------------------|
B||---------------------|
G||-4-4-4-4-4-3-3-3-3-3-|
D||-4-4-4-4-4-4-4-4-4-4-| 2x
A||-x-x-x-x-x-x-x-x-x-x-|
E||-2-2-2-2-2-2-2-2-2-2-|


Verse (gtr 1 hold)
E||---|
B||---|
G||-4-|
D||-x-|
A||-2-|
E||---|


Verse (gtr 2)
E||-------------------------------------------------------------------------|
B||-------------------------------------------------------------------------|
G||-4-4-4-4-4-4-4-4-4-4-4-4-4-4-4-4-4-4-4-4-4-4-4-4-4-4-4-4-4-4-4-4-4-4-4-4-|
D||-4-4-4-4-4-4-4-4-4-4-4-4-4-4-4-4-4-4-4-4-4-4-4-4-4-4-4-4-4-4-4-4-4-4-4-4-|
A||-2-2-2-2-2-2-2-2-2-2-2-2-0-0-0-0-0-0-0-0-0-0-0-0-x-x-x-x-x-x-x-x-x-x-x-x-|
E||-------------------------------------------------4-4-4-4-4-4-4-4-4-4-4-4-|

E||-------------------------|
B||-------------------------|
G||-4-4-4-4-4-4-4-4-4-4-4-4-|
D||-2-2-2-2-2-2-2-2-2-2-2-2-| 2x
A||-x-x-x-x-x-x-x-x-x-x-x-x-|
E||-0-0-0-0-0-0-0-0-0-0-0-0-|
And Then
Riff A (gtr 2 2nd part of verse)
E||-------------------------------------------------------------------------|
B||-------------------------------------------------------------------------|
G||-4-4-4-4-4-4-4-4-4-4-4-4-4-4-4-4-4-4-4-4-4-4-4-4-4-4-4-4-4-4-4-4-4-4-4-4-|
D||-4-4-4-4-4-4-4-4-4-4-4-4-4-4-4-4-4-4-4-4-4-4-4-4-4-4-4-4-4-4-4-4-4-4-4-4-|
A||-2-2-2-2-2-2-2-2-2-2-2-2-x-x-x-x-x-x-x-x-x-x-x-x-x-x-x-x-x-x-x-x-x-x-x-x-|
E||-------------------------2-2-2-2-2-2-2-2-2-2-2-2-4-4-4-4-4-4-4-4-4-4-4-4-|

E||-------------------------|
B||-------------------------|
G||-4-4-4-4-4-4-4-4-4-4-4-4-|
D||-2-2-2-2-2-2-2-2-2-2-2-2-| 2x
A||-x-x-x-x-x-x-x-x-x-x-x-x-|
E||-0-0-0-0-0-0-0-0-0-0-0-0-|

Chorus
E||----------------------------------------------------|
B||-0-0-0-2-0-0--0-0-0-2-0-0--0-0-0-2-0-0--0-0-0-2-0-0-|
G||----------------------------------------------------|
D||----------------------------------------------------|
A||----------------------------------------------------|
E||----------------------------------------------------|

Chorus pt 2
gtr 1
E||-------------------------------------------------------------------------|
B||-------------------------------------------------------------------------|
G||-4-4-4-4-4-4-4-4-4-4-4-4-4-4-4-4-4-4-4-4-4-4-4-4-4-4-4-4-4-4-4-4-4-4-4-4-|
D||-4-4-4-4-4-4-4-4-4-4-4-4-4-4-4-4-4-4-4-4-4-4-4-4-4-4-4-4-4-4-4-4-4-4-4-4-|
A||-2-2-2-2-2-2-2-2-2-2-2-2-x-x-x-x-x-x-x-x-x-x-x-x-x-x-x-x-x-x-x-x-x-x-x-x-|
E||-------------------------2-2-2-2-2-2-2-2-2-2-2-2-4-4-4-4-4-4-4-4-4-4-4-4-|

E||-------------------------|
B||-------------------------|
G||-4-4-4-4-4-4-4-4-4-4-4-4-|
D||-4-4-4-4-4-4-4-4-4-4-4-4-| 1x
A||-x-x-x-x-x-x-x-x-x-x-x-x-|
E||-2-2-2-2-2-2-2-2-2-2-2-2-|
 ||                         |
 ||                         |
gtr 2                       |
E||----------------------------------------------------|
B||-0-0-0-2-0-0--0-0-0-2-0-0--0-0-0-2-0-0--0-0-0-2-0-0-|
G||----------------------------------------------------|
D||----------------------------------------------------|
A||----------------------------------------------------|
E||----------------------------------------------------|


Bridge (gtr 1)
E||-------------------------------------------------------------------------|
B||-------------------------------------------------------------------------|
G||-8-8-8-8-8-8-8-8-8-8-8-8-9-9-9-9-9-9-9-9-9-9-9-9-8-8-8-8-8-8-8-8-8-8-8-8-|
D||-x-x-x-x-x-x-x-x-x-x-x-x-x-x-x-x-x-x-x-x-x-x-x-x-x-x-x-x-x-x-x-x-x-x-x-x-|
A||-6-6-6-6-6-6-6-6-6-6-6-6-7-7-7-7-7-7-7-7-7-7-7-7-6-6-6-6-6-6-6-6-6-6-6-6-|
E||-------------------------------------------------------------------------|

E||-------------------------------------------------------------------------|
B||-------------------------------------------------------------------------|
G||-9-9-9-9-9-9-9-9-9-9-9-9-------------------------9-9-9-9-9-9-9-9-9-9-9-9-|
D||-x-x-x-x-x-x-x-x-x-x-x-x-------------------------x-x-x-x-x-x-x-x-x-x-x-x-|
A||-7-7-7-7-7-7-7-7-7-7-7-7-6-6-6-6-6-6-6-6-6-6-6-6-7-7-7-7-7-7-7-7-7-7-7-7-|
E||-0-0-0-0-0-0-0-0-0-0-0-0-4-4-4-4-4-4-4-4-4-4-4-4-0-0-0-0-0-0-0-0-0-0-0-0-|

E||-------------------------------------------------|
B||-------------------------------------------------|
G||-------------------------------------------------|
D||-------------------------4-4-4-4-4-4-4-4-4-4-4-4-|
A||-6-6-6-6-6-6-6-6-6-6-6-6-4-4-4-4-4-4-4-4-4-4-4-4-|
E||-4-4-4-4-4-4-4-4-4-4-4-4-2-2-2-2-2-2-2-2-2-2-2-2-|

Bridge (gtr 2)
E||-------------------------------------------------|
B||-------------------------------------------------|
G||-8-8-8-8-8-8-8-8-8-8-8-8-9-9-9-9-9-9-9-9-9-9-9-9-|
D||-x-x-x-x-x-x-x-x-x-x-x-x-x-x-x-x-x-x-x-x-x-x-x-x-| 3x
A||-6-6-6-6-6-6-6-6-6-6-6-6-7-7-7-7-7-7-7-7-7-7-7-7-|
E||-------------------------------------------------|

E||-------------------------------------------------|
B||-------------------------------------------------|
G||-8-8-8-8-8-8-8-8-8-8-8-8-------------------------|
D||-x-x-x-x-x-x-x-x-x-x-x-x-4-4-4-4-4-4-4-4-4-4-4-4-|
A||-6-6-6-6-6-6-6-6-6-6-6-6-4-4-4-4-4-4-4-4-4-4-4-4-|
E||-------------------------2-2-2-2-2-2-2-2-2-2-2-2-|

Last Chorus (gtr 1)
E||-------------------------------------------------|
B||-------------------------------------------------|
G||-8-8-8-8-8-8-8-8-8-8-8-8-6-6-6-6-6-6-6-6-6-6-6-6-|
D||-x-x-x-x-x-x-x-x-x-x-x-x-x-x-x-x-x-x-x-x-x-x-x-x-| 4x
A||-6-6-6-6-6-6-6-6-6-6-6-6-4-4-4-4-4-4-4-4-4-4-4-4-|
E||-------------------------------------------------|

End On
E||---|
B||---|
G||-4-|
D||-x-| 
A||-2-|
E||---|

Order:
Intro 2x
Verse
Chorus (played w/Riff A)
Chorus pt 2
Intro
Riff A 2x
Chorus (played w/Riff A)
Chorus pt 2
Bridge
Riff A (gtr 1 only)
Chorus pt 2 (gtr 1 only)
Chorus (played w/Last Chorus)
End On
Tap to rate this tab
 
# A B C D E F G H I J K L M N O P Q R S T U V W X Y Z