Guitaretab - guitar tabs
Song name
# A B C D E F G H I J K L M N O P Q R S T U V W X Y Z

Box Car Racer - There Is tab

Intro (gtr 1) (Tom's Part)
E||-------------------------------------------------------------------------|
B||-------------------------------------------------------------------------|
G||-8-8-8-8-8-8-8-8-8-8-8-8-6-6-6-6-6-6-6-6-6-6-6-6-4-4-4-4-4-4-4-4-4-4-4-4-|
D||-x-x-x-x-x-x-x-x-x-x-x-x-x-x-x-x-x-x-x-x-x-x-x-x-x-x-x-x-x-x-x-x-x-x-x-x-|
A||-6-6-6-6-6-6-6-6-6-6-6-6-4-4-4-4-4-4-4-4-4-4-4-4-2-2-2-2-2-2-2-2-2-2-2-2-|
E||-------------------------------------------------------------------------|

E||---------------------|
B||---------------------|
G||-6-6-6-6-6-3-3-3-3-3-|
D||-x-x-x-x-x-x-x-x-x-x-| 2x
A||-4-4-4-4-4-1-1-1-1-1-|
E||---------------------|


Intro (gtr 2) (Dave's Part)
E||-------------------------------------------------------------------------|
B||-------------------------------------------------------------------------|
G||-8-8-8-8-8-8-8-8-8-8-8-8-6-6-6-6-6-6-6-6-6-6-6-6-9-9-9-9-9-9-9-9-9-9-9-9-|
D||-x-x-x-x-x-x-x-x-x-x-x-x-x-x-x-x-x-x-x-x-x-x-x-x-x-x-x-x-x-x-x-x-x-x-x-x-|
A||-6-6-6-6-6-6-6-6-6-6-6-6-4-4-4-4-4-4-4-4-4-4-4-4-7-7-7-7-7-7-7-7-7-7-7-7-|
E||-------------------------------------------------------------------------|

E||---------------------|
B||---------------------|
G||-6-6-6-6-6-3-3-3-3-3-|
D||-x-x-x-x-x-x-x-x-x-x-| 2x
A||-4-4-4-4-4-1-1-1-1-1-|
E||---------------------|


Verse (gtr 1 hold)
E||---|
B||---|
G||-4-|
D||-x-|
A||-2-|
E||---|


Verse (gtr 2)
E||-------------------------------------------------------------------------|
B||-------------------------------------------------------------------------|
G||-4-4-4-4-4-4-4-4-4-4-4-4-4-4-4-4-4-4-4-4-4-4-4-4-4-4-4-4-4-4-4-4-4-4-4-4-|
D||-4-4-4-4-4-4-4-4-4-4-4-4-4-4-4-4-4-4-4-4-4-4-4-4-4-4-4-4-4-4-4-4-4-4-4-4-|
A||-2-2-2-2-2-2-2-2-2-2-2-2-x-x-x-x-x-x-x-x-x-x-x-x-x-x-x-x-x-x-x-x-x-x-x-x-|
E||-------------------------2-2-2-2-2-2-2-2-2-2-2-2-0-0-0-0-0-0-0-0-0-0-0-0-|



E||---------------------|
B||---------------------|
G||-4-4-4-4-4-3-3-3-3-3-|
D||-4-4-4-4-4-4-4-4-4-4-| 2x
A||-x-x-x-x-x-x-x-x-x-x-|
E||-2-2-2-2-2-2-2-2-2-2-|


Chorus gtr 1
E||-------------------------------------------------------------------------|
B||-------------------------------------------------------------------------|
G||-4-4-4-4-4-4-4-4-4-4-4-4-4-4-4-4-4-4-4-4-4-4-4-4-4-4-4-4-4-4-4-4-4-4-4-4-|
D||-4-4-4-4-4-4-4-4-4-4-4-4-4-4-4-4-4-4-4-4-4-4-4-4-4-4-4-4-4-4-4-4-4-4-4-4-|
A||-2-2-2-2-2-2-2-2-2-2-2-2-x-x-x-x-x-x-x-x-x-x-x-x-x-x-x-x-x-x-x-x-x-x-x-x-|
E||-------------------------2-2-2-2-2-2-2-2-2-2-2-2-4-4-4-4-4-4-4-4-4-4-4-4-|

E||-------------------------|
B||-------------------------|
G||-4-4-4-4-4-4-4-4-4-4-4-4-|
D||-4-4-4-4-4-4-4-4-4-4-4-4-| 1x
A||-x-x-x-x-x-x-x-x-x-x-x-x-|
E||-0-0-0-0-0-0-0-0-00-0-0-|
 

gtr 2                       |
E||----------------------------------------------------|
B||----------------------------------------------------|
G||-4----4--6--4----4----4--6--4----4----4--6--4-------|
D||----4---------------4---------------4---------------|
A||----------------------------------------------------|
E||----------------------------------------------------|


Bridge (gtr 1)hold
E||---|        E||----| 
B||---|        B||----|
G||-4-|hold    G||----| end
D||-x-|        D||-4--|  
A||-2-|        A||-4--|
E||---|        e||-2--|

Brige (gtr 2)
E||-------------------------------------------------------------------------|
B||-------------------------------------------------------------------------|
G||-8-8-8-8-8-8-8-8-8-8-8-8-9-9-9-9-9-9-9-9-9-9-9-9-8-8-8-8-8-8-8-8-8-8-8-8-|
D||-x-x-x-x-x-x-x-x-x-x-x-x-x-x-x-x-x-x-x-x-x-x-x-x-x-x-x-x-x-x-x-x-x-x-x-x-|
A||-6-6-6-6-6-6-6-6-6-6-6-6-7-7-7-7-7-7-7-7-7-7-7-7-6-6-6-6-6-6-6-6-6-6-6-6-|
E||-------------------------------------------------------------------------|

E||-------------------------------------------------------------------------|
B||-------------------------------------------------------------------------|
G||-9-9-9-9-9-9-9-9-9-9-9-9-------------------------9-9-9-9-9-9-9-9-9-9-9-9-|
D||-x-x-x-x-x-x-x-x-x-x-x-x-------------------------x-x-x-x-x-x-x-x-x-x-x-x-|
A||-7-7-7-7-7-7-7-7-7-7-7-7-6-6-6-6-6-6-6-6-6-6-6-6-7-7-7-7-7-7-7-7-7-7-7-7-|
E||-------------------------4-4-4-4-4-4-4-4-4-4-4-4-------------------------|

E||--------------------------------------------------|
B||--------------------------------------------------|
G||-4-4-4-4-4-4-4-4-4-4-4-4--------------------------|
D||-x-x-x-x-x-x-x-x-x-x-x-x--4-4-4-4-4-4-4-4-4-4-4-4-|
A||-2-2-2-2-2-2-2-2-2-2-2-2--x-x-x-x-x-x-x-x-x-x-x-x-|
E||-x-x-x-x-x-x-x-x-x-x-x-x--2-2-2-2-2-2-2-2-2-2-2-2-|

End(gtr 1 and gtr2)
       E||---|             
       B||---|         
       G||-4-| 
       D||-x-|         
       A||-2-|         
       E||---|        

1. intro 2x
2. verse 4x
3. chorus 2x
4. intro
5. verse 2x
6. chorus 2x
7. bridge 
8. chorus 2x (only gtr 1)
9. chorus 2x
10.end

[ Tab from: http://www.guitaretab.com/b/box-car-racer/25669.html ]
Related for There Is tab