Song name
# A B C D E F G H I J K L M N O P Q R S T U V W X Y Z

Box Car Racer - And I tab

===========================================================
	Artist: Box Car Racer
	  Song: And I
	 Album: Box Car Racer
===========================================================

Tabbed: TheMutts @ Ultimate-Guitar.com
Email: st_jimmy_themutts@yahoo.com

Tuning: Standard

--------------------------------------
Intro/Main Riff-1
Gtr. I (dist.)
e|-------------------------------------|
B|-------------------------------------|
G|--111111111111\7777/999\7/111111\777-|
D|-------------------------------------|repeat as needed
A|--999999999999\5555/777\5/999999\555-|
E|-------------------------------------|
play this a few times than gtr. II kicks in with..

Intro/Main Riff-2
Gtr. II (dist.)
e|-----------------------------------------------|------|
B|-----------------------------------------------|------|
G|-77777777---------------77777777---------------|-7~~--|
D|-77777777-999999\555555-77777777-999999\555555-|------|
A|-55555555---------------55555555---------------|-5~~--|
E|----------777777\333333----------777777\333333-|------|
                                             play this^ end of 2nd time

Verse
Gtr. I
e|------|
B|------|
G|-7777-|Just play this the whole verse
D|------|
A|-5555-|
E|------|

Chorus

(Gtr. I plays Main Riff-1
 Gtr. II plays Main Riff-2)


Bridge
Gtr. II (all p.m.)
e|-------------------------------------------------------------------------|
B|-------------------------------------------------------------------------|
G|-------------------------------------------------------------------------|
D|-7-77-777-9-99-999-------------------------------------------------------|
A|-5-55-555-7-77-777-9-99-999-5-55-555-------------------------------------|
E|-------------------7-77-777-3-33-333-------------------------------------|


Ending Chorus
Gtr. I
e|-------------------------------------|------|
B|-------------------------------------|------|
G|-77777777777-11111111-9999999-777777-|-7~~--|
D|-------------------------------------|------|
A|-55555555555-99999999-7777777-555555-|-5~~--|
E|-------------------------------------|------|
                                    end on^
Tap to rate this tab
 
# A B C D E F G H I J K L M N O P Q R S T U V W X Y Z