Song name
# A B C D E F G H I J K L M N O P Q R S T U V W X Y Z

Box Car Racer - Instrumental tab

Title:      Intrumental
Band:       Boxcar Racer
Tabbed By:  i_m_heer

Intro: (after wierd intstrument 0:04)
e|---------------------------------------------------------------------------|
B|---------------------------------------------------------------------------|
G|---------------------------------------------------------------------------|
D|---------------------------------------------------------------------------|
A|--55-------55-------55-------55-------55-------55-------55-------55--------|
E|----555555---444444---222222---444444---555555---444444---222222---444444--|

pm..........................................................................


Distorted Riff: (0:30)

e|-------------------------------------
B|-------------------------------------
G|-----------8-8-8-8-----------9-9-9-9-
D|--2-2-2-2--8-8-8-8--2-2-2-2--9-9-9-9-
A|--2-2-2-2--6-6-6-6--2-2-2-2--7-7-7-7-
E|--0-0-0-0-----------0-0-0-0----------

e|--------------------------------------|
B|--------------------------------------|
G|------------------------------2-2-2-2-|
D|---2-2-2-2--6-6-6-6--2-2-2-2--2-2-2-2-|
A|---2-2-2-2--6-6-6-6--2-2-2-2--0-0-0-0-|
E|---0-0-0-0--4-4-4-4--0-0-0-0----------|

Listen to the song to find how many times you play each riff. Good CD.
Tap to rate this tab
# A B C D E F G H I J K L M N O P Q R S T U V W X Y Z