Song name
# A B C D E F G H I J K L M N O P Q R S T U V W X Y Z

Box Car Racer - There Is tab

Box Car Racer - There Is

Intro

Guitar 1 [x2]
e|-----------------------------|-----------------------------|
B|-----------------------------|-----------------------------|
G|--8--8-8--8-8--8-8--8-8-8-8--|--6--6-6--6-6--6-6--6-6-6-6--|
D|--x--x-x--x-x--x-x--x-x-x-x--|--x--x-x--x-x--x-x--x-x-x-x--|
A|--6--6-6--6-6--6-6--6-6-6-6--|--4--4-4--4-4--4-4--4-4-4-4--|
E|-----------------------------|-----------------------------|
    D  D U  U D  D U  U D U D     D  D U  U D  D U  U D U D

e|-----------------------------|-----------------------------|
B|-----------------------------|-----------------------------|
G|--4--4-4--4-4--4-4--4-4-4-4--|--6--6-6--6-6--6-6--6-6-6-6--|
D|--x--x-x--x-x--x-x--x-x-x-x--|--x--x-x--x-x--x-x--x-x-x-x--|
A|--2--2-2--2-2--2-2--2-2-2-2--|--4--4-4--4-4--4-4--4-4-4-4--|
E|-----------------------------|-----------------------------|
    D  D U  U D  D U  U D U D     D  D U  U D  D U  U D U D


Guitar 2 [x2]
e|-----------------------------|-----------------------------|
B|-----------------------------|-----------------------------|
G|--8--8-8--8-8--8-8--8-8-8-8--|--6--6-6--6-6--6-6--6-6-6-6--|
D|--x--x-x--x-x--x-x--x-x-x-x--|--x--x-x--x-x--x-x--x-x-x-x--|
A|--6--6-6--6-6--6-6--6-6-6-6--|--4--4-4--4-4--4-4--4-4-4-4--|
E|-----------------------------|-----------------------------|
    D  D U  U D  D U  U D U D     D  D U  U D  D U  U D U D

e|----------------------------------------|------------------|
B|----------------------------------------|------------------|
G|--11--11-11--11-11--11-11--11-11-11-11--|--6--6-6--6--4-3--|
D|--x---x--x---x--x---x--x---x--x--x--x---|--x--x-x--x-------|
A|--9---9--9---9--9---9--9---9--9--9--9---|--4--4-4--4-------|
E|----------------------------------------|------------------|
    D   D  U   U  D   D  U   U  D  U  D      D  D U  U  


Verse

Guitar 1 [x4]
e|-----------------------------|-----------------------------|
B|-----------------------------|-----------------------------|
G|--4--4-4--4-4--4-4--4-4-4-4--|--4--4-4--4-4--4-4--4-4-4-4--|
D|--4--4-4--4-4--4-4--4-4-4-4--|--4--4-4--4-4--4-4--4-4-4-4--|
A|--2--2-2--2-2--2-2--2-2-2-2--|--2--2-2--2-2--2-2--2-2-2-2--|
E|-----------------------------|--2--2-2--2-2--2-2--2-2-2-2--|
    D  D U  U D  D U  U D U D     D  D U  U D  D U  U D U D

e|-----------------------------|-----------------------------| 
B|-----------------------------|-----------------------------|
G|--4--4-4--4-4--4-4--4-4-4-4--|--4--4-4--4-4--4-4--4-4-4-4--|
D|--4--4-4--4-4--4-4--4-4-4-4--|--2--2-2--2-2--2-2--2-2-2-2--|
A|--x--x-x--x-x--x-x--x-x-x-x--|--2--2-2--2-2--2-2--2-2-2-2--|
E|--4--4-4--4-4--4-4--4-4-4-4--|-----------------------------|
    D  D U  U D  D U  U D U D     D  D U  U D  D U  U D U D


Guitar 2 [x4]
e|-----------------------------|-----------------------------|
B|-----------------------------|-----------------------------|
G|--4--4-4--4-4--4-4--4-4-4-4--|--4--4-4--4-4--4-4--4-4-4-4--|
D|--x--x-x--x-x--x-x--x-x-x-x--|--x--x-x--x-x--x-x--x-x-x-x--|
A|--2--2-2--2-2--2-2--2-2-2-2--|--2--2-2--2-2--2-2--2-2-2-2--|
E|-----------------------------|-----------------------------|
    D  D U  U D  D U  U D U D     D  D U  U D  D U  U D U D

e|-----------------------------|-----------------------------|
B|-----------------------------|-----------------------------|
G|--4--4-4--4-4--4-4--4-4-4-4--|--4--4-4--4-4--4-4--4-4-4-4--|
D|--x--x-x--x-x--x-x--x-x-x-x--|--x--x-x--x-x--x-x--x-x-x-x--|
A|--2--2-2--2-2--2-2--2-2-2-2--|--2--2-2--2-2--2-2--2-2-2-2--|
E|-----------------------------|-----------------------------|
    D  D U  U D  D U  U D U D     D  D U  U D  D U  U D U D


Chorus

Guitar 1 (same as verse) [x2]
e|-----------------------------|-----------------------------| 
B|-----------------------------|-----------------------------|
G|--4--4-4--4-4--4-4--4-4-4-4--|--4--4-4--4-4--4-4--4-4-4-4--|
D|--4--4-4--4-4--4-4--4-4-4-4--|--4--4-4--4-4--4-4--4-4-4-4--|
A|--2--2-2--2-2--2-2--2-2-2-2--|--2--2-2--2-2--2-2--2-2-2-2--|
E|-----------------------------|--2--2-2--2-2--2-2--2-2-2-2--|
    D  D U  U D  D U  U D U D     D  D U  U D  D U  U D U D

e|-----------------------------|-----------------------------|
B|-----------------------------|-----------------------------|
G|--4--4-4--4-4--4-4--4-4-4-4--|--4--4-4--4-4--4-4--4-4-4-4--|
D|--4--4-4--4-4--4-4--4-4-4-4--|--2--2-2--2-2--2-2--2-2-2-2--|
A|--x--x-x--x-x--x-x--x-x-x-x--|--2--2-2--2-2--2-2--2-2-2-2--|
E|--4--4-4--4-4--4-4--4-4-4-4--|-----------------------------|
    D  D U  U D  D U  U D U D     D  D U  U D  D U  U D U D


Guitar 2 [x2]
e|-------------------------|----------------------------|
B|------------------2--0---|----------------------2--0--|
G|-------4-------4---------|-----------4-------4--------|
D|------------4------------|----------------4-----------|
A|-------------------------|----------------------------|
E|-------------------------|----------------------------|

  Do you care if I          don't know what to say

e|--------------------------|---------------------------|
B|--------------------2--0--|---------------------2--0--|
G|---------4-------4--------|---------4--------4--------|
D|---------------4----------|---------------4-----------|
A|--------------------------|---------------------------|
E|--------------------------|---------------------------|

  Will you sleep tonight,    will you think of me

e|----------------------------|----------------------------|
B|---------------------2--0---|----------------------2--0--|
G|-------4----------4---------|------------4-----4---------|
D|-------------4--------------|----------------4-----------|
A|----------------------------|----------------------------|
E|----------------------------|----------------------------|

  Will I shake this off        pretend its all o-kay

e|--------------------------|-----------------------------|
B|--------------------2--0--|-----------------------2--0--|
G|---------4-------4--------|----------4---------4--------|
D|-------------4------------|---------------4-------------|
A|--------------------------|-----------------------------|
E|--------------------------|-----------------------------|

That there someone out there who feels just like me... There is.


I've tried to show when to pluck the strings, when Tom sings. (Hey, that rhymes)


Guitar 3?
e|-----------------------------|-----------------------------|
B|-----------------------------|-----------------------------|
G|--4--4-4--4-4--4-4--4-4-4-4--|--6--6-6--6-6--6-6--6-6-6-6--|
D|--x--x-x--x-x--x-x--x-x-x-x--|--x--x-x--x-x--x-x--x-x-x-x--|
A|--2--2-2--2-2--2-2--2-2-2-2--|--4--4-4--4-4--4-4--4-4-4-4--|
E|-----------------------------|-----------------------------|
    D  D U  U D  D U  U D U D     D  D U  U D  D U  U D U D


e|-----------------------------|-----------------------------|
B|-----------------------------|-----------------------------|
G|--8--8-8--8-8--8-8--8-8-8-8--|--9--9-9--9-9--9-9--9-9-9-9--|
D|--x--x-x--x-x--x-x--x-x-x-x--|--x--x-x--x-x--x-x--x-x-x-x--|
A|--6--6-6--6-6--6-6--6-6-6-6--|--7--7-7--7-7--7-7--7-7-7-7--|
E|-----------------------------|-----------------------------|
    D  D U  U D  D U  U D U D     D  D U  U D  D U  U D U D


Intro (x1)

Verse (x2)

Chorus (x1)


Interlude

Guitar 1
e|-----------------------------|-----------------------------|
B|-----------------------------|-----------------------------|
G|--4--4-4--4-4--4-4--4-4-4-4--|--4--4-4--4-4--4-4--4-4-4-4--|
D|--4--4-4--4-4--4-4--4-4-4-4--|--2--2-2--2-2--2-2--2-2-2-2--|
A|--2--2-2--2-2--2-2--2-2-2-2--|--2--2-2--2-2--2-2--2-2-2-2--|
E|-----------------------------|-----------------------------|
    D  D U  U D  D U  U D U D     D  D U  U D  D U  U D U D

e|-----------------------------|-----------------------------|
B|-----------------------------|-----------------------------|
G|--4--4-4--4-4--4-4--4-4-4-4--|--4--4-4--4-4--4-4--4-4-4-4--|
D|--4--4-4--4-4--4-4--4-4-4-4--|--2--2-2--2-2--2-2--2-2-2-2--|
A|--2--2-2--2-2--2-2--2-2-2-2--|--2--2-2--2-2--2-2--2-2-2-2--|
E|-----------------------------|-----------------------------|
    D  D U  U D  D U  U D U D     D  D U  U D  D U  U D U D

e|-----------------------------|-----------------------------|
B|-----------------------------|-----------------------------|
G|--4--4-4--4-4--4-4--4-4-4-4--|--4--4-4--4-4--4-4--4-4-4-4--|
D|--4--4-4--4-4--4-4--4-4-4-4--|--2--2-2--2-2--2-2--2-2-2-2--|
A|--2--2-2--2-2--2-2--2-2-2-2--|--2--2-2--2-2--2-2--2-2-2-2--|
E|-----------------------------|-----------------------------|
    D  D U  U D  D U  U D U D     D  D U  U D  D U  U D U D


e|-----------------------------|-----------------------------|
B|-----------------------------|-----------------------------|
G|--4--4-4--4-4--4-4--4-4-4-4--|--4--4-4--4-4--4-4--4-4-4-4--|
D|--4--4-4--4-4--4-4--4-4-4-4--|--4--4-4--4-4--4-4--4-4-4-4--|
A|--2--2-2--2-2--2-2--2-2-2-2--|--2--2-2--2-2--2-2--2-2-2-2--|
E|-----------------------------|--2--2-2--2-2--2-2--2-2-2-2--|
    D  D U  U D  D U  U D U D     D  D U  U D  D U  U D U D

Not sure if this is 100% correct but it sounds close enough.


Guitar 2
e|-----------------------------|-----------------------------|
B|-----------------------------|-----------------------------|
G|--8--8-8--8-8--8-8--8-8-8-8--|--9--9-9--9-9--9-9--9-9-9-9--|
D|--x--x-x--x-x--x-x--x-x-x-x--|--x--x-x--x-x--x-x--x-x-x-x--|
A|--6--6-6--6-6--6-6--6-6-6-6--|--7--7-7--7-7--7-7--7-7-7-7--|
E|-----------------------------|-----------------------------|
    D  D U  U D  D U  U D U D     D  D U  U D  D U  U D U D

e|-----------------------------|-----------------------------|
B|-----------------------------|-----------------------------|
G|--8--8-8--8-8--8-8--8-8-8-8--|--9--9-9--9-9--9-9--9-9-9-9--|
D|--x--x-x--x-x--x-x--x-x-x-x--|--x--x-x--x-x--x-x--x-x-x-x--|
A|--6--6-6--6-6--6-6--6-6-6-6--|--7--7-7--7-7--7-7--7-7-7-7--|
E|-----------------------------|-----------------------------|
    D  D U  U D  D U  U D U D     D  D U  U D  D U  U D U D

e|-----------------------------|-----------------------------|
B|-----------------------------|-----------------------------|
G|--8--8-8--8-8--8-8--8-8-8-8--|--9--9-9--9-9--9-9--9-9-9-9--|
D|--x--x-x--x-x--x-x--x-x-x-x--|--x--x-x--x-x--x-x--x-x-x-x--|
A|--6--6-6--6-6--6-6--6-6-6-6--|--7--7-7--7-7--7-7--7-7-7-7--|
E|-----------------------------|-----------------------------|
    D  D U  U D  D U  U D U D     D  D U  U D  D U  U D U D

e|-----------------------------|-----------------------------|
B|-----------------------------|-----------------------------|
G|--8--8-8--8-8--8-8--8-8-8-8--|--6--6-6--6-6--6-6--6-6-6-6--|
D|--x--x-x--x-x--x-x--x-x-x-x--|--x--x-x--x-x--x-x--x-x-x-x--|
A|--6--6-6--6-6--6-6--6-6-6-6--|--4--4-4--4-4--4-4--4-4-4-4--|
E|-----------------------------|-----------------------------|
    D  D U  U D  D U  U D U D     D  D U  U D  D U  U D U D


Chorus (Just Guitar 1)(x1)

Chorus (x1)


End on

e|-----|
B|-----|
G|--4--|
D|--4--|
A|--2--|
E|-----|


Hopefully you found this helpful :D

Phil
Tap to rate this tab
# A B C D E F G H I J K L M N O P Q R S T U V W X Y Z