Song name
# A B C D E F G H I J K L M N O P Q R S T U V W X Y Z

Box Car Racer - Cat Like Theif tab

~: let ring

Play after the drum solo


E----------------------------------------------------|
B----------------------------------------------------|
G------------2~---------2~-----------2~--------------|         play this through out the song until
D-----------------0-0~-------2-2~--------------------|       the chorus
A------4-4~------------------------------------------|
E----------------------------------------------------|


Chorus

E------------------------------------------------|
B------------------------------------------------|
G-----2-2-2-2-----2-2-2-2-----2-2-2-2------------|
D-------------------0-0-0-0-----2-2-2-2----------|      And that?s the whole song
A-----4-4-4-4------------------------------------|
E------------------------------------------------|
Tap to rate this tab
# A B C D E F G H I J K L M N O P Q R S T U V W X Y Z