Song name
# A B C D E F G H I J K L M N O P Q R S T U V W X Y Z

Box Car Racer - Im Kicking tab

Band:  Boxcar Racer
Song:  I'm Kicking
Tuning:  Standard
Tabbist:  Kyle Widenski

Intro: First Guitar
e-------|
B---0---|
G-----2-|
D-2-----|
A-------|
E-------|

Intro: Second Guitar (Figure out strum yourself)
e-----------------|
B-----------------|
G-2-------------7-|
D-2-----4-------7-|
A-0-----4-------5-|
E-------2---------|

Verse:  (Figure out strum yourself)
e-----------------------|
B-----------------------|
G-2------------9------7-|
D-2-----4------9------7-|
A-0-----4------7------5-|
E-------2---------------|

Chorus:  (Figure out strum yourself)
e-------------------------|
B-------------------------|
G-2---------------------7-|
D-2------6-------4------7-|
A-0------6-------4------5-|
E--------4-------2--------|

Solo: Play 2 times
e--------------------------------------------------------------------|
B----5-2------2-0------5-2----2-0-----5-2------2-0------5-2------2-0-|
G--2--------2--------2------2-------2--------2--------2--------2-----|
D---------------------------------0--------0--------0--------0-------|
A-0-------0--------2-------2-----------------------------------------|
E--------------------------------------------------------------------|
Tap to rate this tab
# A B C D E F G H I J K L M N O P Q R S T U V W X Y Z