Guitaretab - guitar tabs
Song name
# A B C D E F G H I J K L M N O P Q R S T U V W X Y Z

Box Policy - After Effects Acoustic tab

After Effects (Acoustic)
http://www.members.shaw.ca/theboxpolicy/
Contact the band at the_box_policy@hotmail.com


Verse: Play 4 times (first time palm muted)
|--------------------------------------------------------------------------|
|--------------------------------------------------------------------------|
|--------------------------------------------------------------------------|
|-----5-----5---5-----5-----5---5-----7-----7---7-----4-----4---4----------|
|-7-7---7-7---7---5-5---5-5---5---5-5---5-5---5---5-5---5-5---5------------|
|--------------------------------------------------------------------------|

Chorus: Play 3 times (doesn't include actual strumming pattern)
|----------------|
|----------------|
|----------------|
|-4---5--5--7--4-|
|-5---7--5--5--5-|
|----------------|
"Good..."

Verse: Play 4 times
|--------------------------------------------------------------------------|
|--------------------------------------------------------------------------|
|--------------------------------------------------------------------------|
|-----5-----5---5-----5-----5---5-----7-----7---7-----4-----4---4----------|
|-7-7---7-7---7---5-5---5-5---5---5-5---5-5---5---5-5---5-5---5------------|
|--------------------------------------------------------------------------|
[ Tab from: http://www.guitaretab.com/b/box-policy/51408.html ]
Chorus: Play 3 times (doesn't include actual strumming pattern)
|----------------|
|----------------|
|----------------|
|-4---5--5--7--4-|
|-5---7--5--5--5-|
|----------------|
"Good..."

Interlude:
|--------------------------------------------------------------------------|
|--------------------------------------------------------------------------|
|---------4-4---4---------4---------------4-4---4---------4----------------|
|-----5-------5-------5-----5---5-----5-------5-------5-----5---5----------|
|-7-7---7---------7-7---7-----7---5-5---5---------5-5---5-----5------------|
|--------------------------------------------------------------------------|

|--------------------------------------------------------------------------|
|--------------------------------------------------------------------------|
|---------4-4---4---------4-------------------------------4----------------|
|-----5-------5-------5-----5---5-----5-------5-------5---5----------------|
|-3-3---3---------3-3---3-----3---0-0---0-0-0---0-3-3---3-3----------------|
|--------------------------------------------------------------------------|

Chorus: Play 3 times agressively (doesn't include actual strumming pattern)
|----------------|
|----------------|
|----------------|
|-4---5--5--7--4-|
|-5---7--5--5--5-|
|----------------|
"Good..."

http://www.members.shaw.ca/theboxpolicy/
Related for After Effects Acoustic tab