Song name
# A B C D E F G H I J K L M N O P Q R S T U V W X Y Z

Boxcar Racer - Letters To God chords

Highlighted       Show chord diagrams
Boxcar Racer
Letters To God
Boxcar Racer
2002 MCA Records
Submitted by: paramore_fans@yahoo.com

Key: G

Tuning: Standard EADGBe

Chords used:
Em -   022000
F# -   244xxx
G -    320033
C -    x32010
D -    xx0232
Am -   x02210
G/B -  x2x033


Intro: Em--F#-G- x2


Verse 1:
Em
  Caught off guard
G
  all worked up
Em
  the air is as 
G
dark and cold as
     Em
night Let me go
G
  I'm not done
Em
  I swear I'll take
     G
just one lifetime


Chorus:
    Em
And I I won't
C          G
lie I wont sin
D                    Em C
Maybe I dont wanna go
              G D
Can't you wait  Maybe 
I don't wanna go


Interlude: Em--F#-G- x2


2nd Verse:
Em
  I should've asked
G
  I could've helped
Em
  at least stop fucking 
G
thousand times before
Em
  Will this offer
G
  get me in?
Em
  Or does this prove
     G
that they gave more?


(Repeat Chorus)


Acoustic:
G-Am-G/B-Am-G-Am-G/B-C x2


Piano:
      G        Am        G/B       Am      G      Am     G/B     C
e|---------|---------|---------|---------|---|----------|----|-0------|
B|-3-----3-|-1-----1-|-3-----3-|-1--0----|---|--1--1--3-|-0--|---3--1-|
G|----0----|----0----|----0----|-------2-|-0-|----------|----|--------|
D|---------|---------|---------|---------|---|----------|----|--------|
A|---------|---------|---------|---------|---|----------|----|--------|
E|---------|---------|---------|---------|---|----------|----|--------|

        G            Am           G/B           Am
e|-------3--10-|-------3--8-|-7--------10-|-8--7-------|
B|-0-1-0-------|-0-1-0------|-----8-------|---------10-|
G|-------------|------------|---0----7----|-------7----|
D|-------------|------------|-------------|------------|
A|-------------|------------|-------------|------------|
E|-------------|------------|-------------|------------|

     G       Am       G/B        C
e|-3----|-3-----3-|-3-----3-|-5--7--8-|
B|----3-|----1----|----3----|---------|
G|------|---------|---------|---------|
D|------|---------|---------|---------|
A|------|---------|---------|---------|
E|------|---------|---------|---------|


Distortion: Em--F#-G- x4


(Repeat Chorus twice)


Outro: Em(hold)
Tap to rate this tab
# A B C D E F G H I J K L M N O P Q R S T U V W X Y Z