Boy And Bear - Mexican Mavis tab

Artist: Boy & Bear
Song: Mexican Mavis
EP: With Emperor Antartica

My space:
http://www.myspace.com/boyandbearmusic

iTunes:
http://itunes.apple.com/au/artist/boy-bear/id331665629


Great song can't wait to see them at Falls this year.


Timing's not shown very well, but the notes are there, listen to the CD to get the timing.


Verse acoustic

   Bm        A
E:-------------------------|
B:-3------3--2-------2-----|  Repeat about 7 times then
G:---4----------2----------|
D:-----4--4-------2--2-----|
A:-2---------0-------------|
E:-------------------------|

   G                             E
E:---------------------------------------|
B:---3-------3---------3---------0-0-x-x-|
G:-----0-------0---------0---x---1-1-x-x-|
D:-------0-------0---------0-x---2-2-x-x-|
A:---------2--------2--------x---2-2-x-x-|
E:-3---------------------------0---0-x-x-|


Verse lead (heavily palm muted)

E:----------------------------------------|
B:----------------------------------------|
G:---7-7---7------------7-7---7-----------|
D:-9-----9---9-7---7--9-----9---9-7-------|
A:---------------9------------------9-----|
E:----------------------------------------|


Chorus (all Barre chords, except the E).

             Em          D           Bm
So won't you keep from the beggars of bones

    D                     A    E
For the night comes to bring them home

         Em       D   Bm
If they manage to keep safe skin

A
He'll call for her

E
She'll call for him


Bridge Chords (repeat)

G     Bm       E


Bridge Lead

E:-------------------------------------------------|
B:---8---10-8---8-----7---10-7-5---------7-9-12----|
G:-9---9------9---9-7---7--------7-4-7-9-----------|
D:-------------------------------------------------|
A:-------------------------------------------------|
E:-------------------------------------------------|


Final chords

             Em                   Bm
So won't you keep from the beggars of bones

    D                        E
For the night comes to bring them home

         Em          Bm
If they manage to keep safe skin

A
He'll call for her

Corrections more than welcome. nick_cam1980@yahoo.com
Tap to rate this tab
 
# A B C D E F G H I J K L M N O P Q R S T U V W X Y Z