Song name
# A B C D E F G H I J K L M N O P Q R S T U V W X Y Z

Boy And Bear - Rabbit Song tab

First of all,
I tabbed this from this video:
http://www.youtube.com/watch?v=EbmcSQ_qVng

and i could only work out the chord parts.
i have NO idea what he's picking,
but i thought its better than nothing,
so yeah,
also, the chord progression isn't very hard, so i left that out too, but this is 
just what chord changes into what.
any corrections etc, leave me a comment.
cheers.

Verse:
e|---4-----5-----0-----2----4-----|
B|---5-----5-----0-----2----5-----|
G|---6-----6-----3-----2----6-----|
D|---6-----7-----4-----0----6-----|
A|---4-----7-----4-----0----4-----|
E|---4-----5-----x-----0----4-----
|
Bridge:
e|---4-----------0-----0----|
B|---4h5---------0-----0----|
G|---4h6---------1-----3----|
D|---4h6---------2-----4----|
A|---4-----------2-----4----|
E|---4-----------x-----x----|

Verse 2:
e|---4-----0-----0---|
B|---5-----0-----0---|
G|---6-----1-----3---|
D|---6-----2-----4---|
A|---4-----2-----4---|
E|---4-----x-----x---|

Outro:
e|---0----0----0------|
B|---0----0----0------|
G|---6----1----3------|
D|---7----2----4------|
A|---7----2----4------|
E|---x----x----x------|
Tap to rate this tab
 
# A B C D E F G H I J K L M N O P Q R S T U V W X Y Z